Song name
# A B C D E F G H I J K L M N O P Q R S T U V W X Y Z

Mccartney Paul - Band On The Run tab

From: jblack@eureka.wbme.jhu.edu (Jason Black)

Band on the Run - Paul McCartney

                                 ~~~~~
------------------------------------------------------------------
-10b(12)-(12)r10-10b(12)-(12)r10-------10^12^10^12^10^12^10^12^10-
---------(11)r-9---------(11)r 9-11-------------------------------
---------------------------------12-------------------------------
------------------------------------------------------------------
------------------------------------------------------------------

          ~~~~~
----------12------------------------------------
-10-------10------------------------------------
-12^11-11--9----12^14^12^14^12^14^12^14^12-<12>-
-------12---------------------------------------
------------------------------------------------
------------------------------------------------

                                 ~~~~~
-10b(12)-(12)r10--------------------------------------------------
-10b(12)-(12)r10-10b(12)-(12)r10-------10^12^10^12^10^12^10^12^10-
------------------9b(11)-(11)r-9-11-------------------------------
---------------------------------12-------------------------------
------------------------------------------------------------------
------------------------------------------------------------------

          ~~~~~
----------12-------------------------------   ?
-10-------10-------------------------------   ?
-12^11-11--9----12^14^12^14^12^14^12^14^12-   ? If anyone can help out with
-------12----------------------------------   ? the bit right here, please
-------------------------------------------   ? e-mail me or post it.
-------------------------------------------   ?

And then, at [1:18]:

-----0-0-0-0-0-0---0-0-------0-0-0-0-0-0---0-0-
-----------------------------3-3-3-3-3-3---0-0-
-----5-5-5-4-4-4---2-2-------------------------
-------------------------0---------------------
-0---------------------------------------------
-----------------------------------------------

At [2:05], there is a horn part:

-------------------------------------------------------------------
-------------------------------------------------------------------
-----------0-------------------------0-----------------------------
-------0-2-----0---0-------------0-2-----0---0---------------------
---0-3-----------------3-----0-3-----------------3-----0-3-----0-3-
-3-------------------------3-------------------------3-------3-----

Starting at [3:39], there are a series of fills that go something like:

------------------------------
-13-13---13-13----------------
----------------(14)r12----12-
------------------------14----
------------------------------
------------------------------

And then the brief solo at [3:51]:

-----------------------------------------------------------------------
-13--------------------------------------------------------------------
------(14)r12--------12-12-12-12b(14)r12-12---(14)r12-12-------11b(12)-
---------------13^14-------------------------------------14-13---------
-----------------------------------------------------------------------
-----------------------------------------------------------------------

The fill after "And the county judge" at [4:38]:

----------------------
-13-12----12----------
-------14----14-12----
-------------------14-
----------------------
----------------------

Notations:
~  vibrato
^  hammer on/pull off
<> harmonic
b  bend from fret before b to fret following b
r  release from fret before r to fret followin r

For bends and releases, numbers in ()'s indicate fret to bend to/release from;
only pick the first note of a bend or release.


Jason Black
jblack@eureka.wbme.jhu.edu
Tap to rate this tab
 
# A B C D E F G H I J K L M N O P Q R S T U V W X Y Z