Guitaretab - guitar tabs
Song name
# A B C D E F G H I J K L M N O P Q R S T U V W X Y Z

Mccartney Paul - Jet tab

-------------------------------------------------------------------------------
			     Jet Ė Paul McCartney & Wings
-------------------------------------------------------------------------------

Tabbed by: Neil Carson
Tuning: Standard (EADGBe)

Intro
e|-------------------------------------------------------------------------|
B|-----------------------------------12------------------------------------|
G|--4---4--6-7------4---4--6-7---------------------------------------------| x2
D|-----------------------------------14------------------------------------|
A|--2---2--4-5------2---2--4-5---------------------------------------------|
E|-------------------------------------------------------------------------|

e|---------------------------------------------------------------------------|
B|------------------22222222222222222222222222222222-------------------------|
G|--4---4--6-7------22222222222222222222222222222222-------------------------|
D|------------------22222222222222222222222222222222-------------------------|
A|--2---2--4-5------00000000000000000000000000000000-------------------------|
E|---------------------------------------------------------------------------|

Verse
e|---------------------------------------------------------------------------|
B|-2222222222222222--3---3-3-2----2222222222222222---3--3---3--3-------------|
G|-2222222222222222--2---2-2-2----2222222222222222---2--2---2--2-------------|
D|-2222222222222222--2---2-2-2----2222222222222222---2--2---2--2-------------|
A|-0000000000000000--0---0-0-0----0000000000000000---0--0---0--0-------------|
E|---------------------------------------------------------------------------|

e|---------------------------------------------------------------------------|
B|--5------------------------------------------------------------------------|
G|--4-------4---4--6-7-------------------------------------------------------|
D|--6------------------------------------------------------------------------|
A|--4-------2---2--4-5-------------------------------------------------------|
E|---------------------------------------------------------------------------|

Chorus is just A strummed 16 times

Bridge
[ Tab from: http://www.guitaretab.com/m/mccartney-paul/11464.html ]
Guitar 1
e|---------------------------------------------------------------------------|
B|---------------------------------------------------------------------------|
G|--44444444444444444444444------------44444444444444444444444---------------|
D|--44444444444444444444444------------44444444444444444444444---------------|
A|--22222222222222222222222------------22222222222222222222222---------------|
E|--------------------------0-2-4-5-6--------------------------0-2-4-5-6-----|

Guitar 2
e|---------------------------------------------------------------------------|
B|---------10----------------------------------10----------------------------|
G|------/11---------------------------------/11------------------------------|
D|-------------(let both notes ring then slide down)-------------------------|
A|---------------------------------------------------------------------------|
E|---------------------------------------------------------------------------|

Guitar 1
e|---------------------------------------------------------------------------|
B|---------------------2---3-2-----------------------------------------------|
G|--4444444444444444---2---2-2-----------------------------------------------|
D|--4444444444444444---2---2-2-----------------------------------------------|
A|--2222222222222222---0---0-0-----------------------------------------------|
E|---------------------------------------------------------------------------|

Guitar 2
e|---------------------------------------------------------------------------|
B|---------10----------------------------------------------------------------|
G|------/11------------------------------------------------------------------|
D|---------------------------------------------------------------------------|
A|---------------------------------------------------------------------------|
E|---------------------------------------------------------------------------|

Solo riff
e|------------------------------------------------------------------------|
B|----------------------12---10--10---------------------------------------|
G|----11--9----9---7----12---11--9----------------------------------------|
D|----12--11---10--9------------------------------------------------------| x2
A|------------------------------------------------------------------------|
E|------------------------------------------------------------------------|

Ending (itís on the saxaphone on the album, but live itís played on guitar)
e|---------------------------------------------------------------------------|
B|--10-----------------------------------------------------------------------|
G|----9b11b9-----------------------------------------------------------------|
D|----------9b11b9--7-7-9/11-------------------------------------------------|
A|---------------------------9--7/9-7/9--9~----------------------------------|
E|---------------------------------------------------------------------------|


| /  slide up
| \  slide down
| h  hammer-on
| p  pull-off
| ~  vibrato
| +  harmonic
| x  Mute note
===============================================================================

Related for Jet tab