Song name
# A B C D E F G H I J K L M N O P Q R S T U V W X Y Z

Mcfly - That Girl tab

McFly
That Girl
Album: Room On The Third Floor
Transcribed by Soch H.

Capo 1st Fret

Intro:(Not relative to capo)
            D           Cadd9        G
|----------11-11--------9-9----------4----------------|
|-------11-11-11------9-9-9----4--6--4-6-4---4--6--4--|
|-11h12----------9h10--------5---------6-4h5----------|
|-----------------------------------------------------|
|-----------------------------------------------------|
|-----------------------------------------------------|

|--7--6--4--------------------------------------------|
|-----------7--4--------------------------------------|
|-----------------7--6--4-----------------------------|
|--------------------------6--------------------------|
|-----------------------------------------------------|
|-----------------------------------------------------|
G
Went out with the guys
Cadd9
And before my eyes
G
There was this girl 
               D
She looked so fine

(Not relative to capo)
|-11-11-9-9-8-8-------------|
|---------------11-11-9-----|
|---------------------------|
|---------------------------|
|---------------------------|
|---------------------------|
                 G
And she blew my mind
                          Cadd9
And I wished that she was mine
             G
And I said, hey wait up 

(Not relative to capo)
|-8-----8--6----6--4-4-4-4-4-4-4-4-4---------|
|------------------4-4-4-4-4-4-4-4-4---------|
|----8~------8~------------------------------|
|--------------------------------------------|
|--------------------------------------------|
|--------------------------------------------|
           D               G
Cause I'm off to speak to her
                      G
And my friends said (Never get her, never gonna...)
             Cadd9
But I didn't care
                               G
Cause I loved the long blonde hair
                     D
And love was in the air
                  G
And she looked at me
                 Cadd9
And the rest is history
G                   
Dude you're being silly 
               D                  Cadd9
Cause you're never gonna get that girl
             D
And you're never gonna get the girl

G
We spoke for hours
Cadd9
Took off my trousers
G                              D
Spent the day laughing in the sun
            G
And we had fun 
                                Cadd9
And my friends they all looked stunned yeah, yeah
G
Dude she's amazing 
        D                          G
And I can't believe you got that girl
                       G
And my friends said (She's amazing, I can't believe...)
                       Cadd9
It gave me more street cred 
                     G
I dug the book she read
                   D
And how could I forget
               G
She rocks my world
                    Cadd9
More than any other girl yeah, yeah
G                          D                        Cadd9
Dude she's amazing and I can't believe you got that girl
        D
And I can't believe you got the girl

Bm              C
She looked incredible
                Bm
Just turned seventeen
              C
I guess my friends are right
                  Em
She's out of my league
                 D
So what am I to do
                       C 
She's too good to be true

Guitar Solo: (Not relative to capo)
            G                            Cadd9					    
|------------------------------------------------------------------|
|------------------------------------------------6--4--4b4.5-------|
|---6-6-6--6p4---6p4---6p4---6p4---6p4-----------6--4--4b4.5-------|
|--------------6-----6-----6-----6-----6---4~--6-------------6--6--|
|------------------------------------------------------------------|
|------------------------------------------------------------------|
           G
|--------------------------------------------------7--9-----------|
|---------/7-7-7--/7-7-7--/7-7-7--/7-7-7-7------9-----------------|
|---------/8-8-8--/8-8-8--/8-8-8--/8-8-8-8------------------------|
|--6s13\----------------------------------------------------------|
|-----------------------------------------------------------------|
|-----------------------------------------------------------------|
   D                                                    G
|-9b11--9b11--9b11rp7---------------7-------7-------7-------7----|
|-----------------------9--9---7h9-----7h9-----7h9-----7h9-------|
|----------------------------------------------------------------|
|----------------------------------------------------------------|
|----------------------------------------------------------------|
|----------------------------------------------------------------|
                                Cadd9
|-------7-------------------------4------------------|
|--7h9-----7h9p7------------------4--7--4------------|
|-----------------8\------4--6b8----------6b8rp4-----|
|------------------------------------------------6---|
|----------------------------------------------------|
|----------------------------------------------------|
             G             D               G
|----------------------------------------------------------------|
|-----------6b7r--4----------------------------------------------|
|-6--4~~----6b7r--4h5--------------------------------------------|
|----------------------6-4---------4-----------------------------|
|--------------------------6-5-4---------------------------------|
|--------------------------------7---7----14s4-------------------|
				           rapid pick here
G
But three days later
Cadd9
Went 'round to see her
G                         D
But she was with another guy
             G                         Cadd9
And I said fine, but I never asked her why
                   G            D                G
But since then loneliness has been a friend of mine
                 G
My friends say (Such a pity, I'm sorry that...)
               Cadd9
I let her slip away
                G
They tell me everyday
                  D
That it will be okay
                     G
Yeah, she rocks my world
                    Cadd9
More than any other girl yeah
G                               D                      Cadd9
Dude it's such a pity and I'm sorry that you lost that girl
          D                        G
And I'm sorry that you lost that girl

Chords:
G:	320033
C:      x32010
Cadd9:  x32033
D:      xx0232
Bm:     x24432
Em:     022000
Tap to rate this tab
# A B C D E F G H I J K L M N O P Q R S T U V W X Y Z