Song name
# A B C D E F G H I J K L M N O P Q R S T U V W X Y Z

Mcfly - Smile tab

VERSE 1
(No chords, but if you want to play...)
e|------------------------------------------------------------------------------|
B|------------------------------------------------------------------------------|
G|----------5-5-5-5---------------------------5-5-5-5-5-5-5-5-------------------|
D|-5-5-5-5--5-5-5-5--5-5-5-5-5-5-5-5-5-5-5-5--5-5-5-5-5-5-5-5--5-5-5-5-5-5-5-5--|
A|-5-5-5-5--3-3-3-3--5-5-5-5-5-5-5-5-5-5-5-5--3-3-3-3-3-3-3-3--5-5-5-5-5-5-5-5--|
E|-3-3-3-3-----------3-3-3-3-3-3-3-3-3-3-3-3-------------------3-3-3-3-3-3-3-3--|

e|------------------------------------------------------------------|
B|------------------------------------------------------------------|
G|------------------------------------5-5-5-5-7---------------------|
D|--2-2-2-2-2-2-2-2--7-7-7-7-5-5-5-5--5-5-5-5-7---------------------|
A|--2-2-2-2-2-2-2-2--7-7-7-7-7-7-7-7--3-3-3-3-5---------------------|
E|--0-0-0-0-0-0-0-0--5-5-5-5-5-5-5-5-------------\\\\3-5-7-8-7-5-3--|

VERSE 2
e|-----------------------------------------------------------------------------|
B|-----------------------------------------------------------------------------|
G|----------5-5-5-5------------------------------------------------------------|
D|-5-5-5-5--5-5-5-5--5-5-5-5-5-7-8-9-10-10-10-10-10-10-10-10--5-5-5-5-5-5-5-5--|
A|-5-5-5-5--3-3-3-3--5-5-5-5-5-7-8-9-10-10-10-10-10-10-10-10--5-5-5-5-5-5-5-5--|
E|-3-3-3-3-----------3-3-3-3-3-5-6-7-8--8--8--8--8--8--8--8---3-3-3-3-3-3-3-3--|

e|-----------------------------------------------------------------------------|
B|-----------------------------------------------------------------------------|
G|--------------------------------------5-5-5-5-7-7-7-7------------------------|
D|-2-2-2-2-2-2-2-2-2---7-7-7-7-5-5-5-5--5-5-5-5-7-7-7-7------------------------|
A|-2-2-2-2-2-2-2-2-2---7-7-7-7-7-7-7-7--3-3-3-3-5-5-5-5------------------------|
E|-0-0-0-0-0-0-0-0-0---5-5-5-5-5-5-5-5------------------\\\\3-5-7-8-7-8-10-10--|

CHORUS
e|-------------------------------------------------------------------|
B|-------------------------------------------------------------------|
G|----------5-5-5-5-----------5-5-5-5-----------5-5-5-5-----------7--|
D|-5-5-5-5--5-5-5-5--5-5-5-5--5-5-5-5--5-5-5-5--5-5-5-5--3-3-3-3--7--|
A|-5-5-5-5--3-3-3-3--5-5-5-5--3-3-3-3--5-5-5-5--3-3-3-3--3-3-3-3--5--|
E|-3-3-3-3-----------3-3-3-3-----------3-3-3-3-----------1-1-1-1-----|

VERSE 3
e|-----------------------------------------------------------------------------|
B|-----------------------------------------------------------------------------|
G|----------5-5-5-5------------------------------------------------------------|
D|-5-5-5-5--5-5-5-5--5-5-5-5-5-7-8-9-10-10-10-10-10-10-10-10--5-5-5-5-5-5-5-5--|
A|-5-5-5-5--3-3-3-3--5-5-5-5-5-7-8-9-10-10-10-10-10-10-10-10--5-5-5-5-5-5-5-5--|
E|-3-3-3-3-----------3-3-3-3-3-5-6-7-8--8--8--8--8--8--8--8---3-3-3-3-3-3-3-3--|

e|----------------------------------------------------|
B|----------------------------------------------------|
G|------------------------------------5-5-5-5-7-7-7-7-|
D|--2-2-2-2-2-2-2-2--7-7-7-7-5-5-5-5--5-5-5-5-7-7-7-7-|
A|--2-2-2-2-2-2-2-2--7-7-7-7-7-7-7-7--3-3-3-3-5-5-5-5-|
E|--0-0-0-0-0-0-0-0--5-5-5-5-5-5-5-5------------------|

e|--------------------------------------------|
B|--------------------------------------------|
G|-------------------5-5-5-5-7-7-7-7-7-7-7-7--|
D|--5-5-5-5-3-3-3-3--5-5-5-5-7-7-7-7-7-7-7-7--|
A|--5-5-5-5-3-3-3-3--3-3-3-3-5-5-5-5-5-5-5-5--|
E|--3-3-3-3-1-1-1-1---------------------------|

CHORUS 1x


INSTRUMENTAL
e|----------------------------------------------------------------------------------|
B|----------------------------------------------------------------------------------|
G|----------5-5-5-5-----------5-5-5-5------------5-5-5-5-----------7-7-7-7-7-7-7-7--|
D|-5-5-5-5--5-5-5-5--5-5-5-5--5-5-5-5---5-5-5-5--5-5-5-5--3-3-3-3--7-7-7-7-7-7-7-7--|
A|-5-5-5-5--3-3-3-3--5-5-5-5--3-3-3-3---5-5-5-5--3-3-3-3--3-3-3-3--5-5-5-5-5-5-5-5--|
E|-3-3-3-3-----------3-3-3-3------------3-3-3-3-----------1-1-1-1-------------------|

CHORUS
e|-x-x-x-x-x-x-x-x-|    |-------------------|
B|-x-x-x-x-x-x-x-x-|    |-------------------|
G|-x-x-x-x-x-x-x-x-|    |----------7-7-7-7--|
D|-x-x-x-x-x-x-x-x-| x3 |-3-3-3-3--7-7-7-7--|
A|-x-x-x-x-x-x-x-x-|    |-3-3-3-3--5-5-5-5--|
E|-x-x-x-x-x-x-x-x-|    |-1-1-1-1-----------|

e|-------------------------------------------------------------------------|
B|-------------------------------------------------------------------------|
G|----------5-5-5-5-----------5-5-5-5-----------5-5-5-5-----------7-7-7-7--|
D|-5-5-5-5--5-5-5-5--5-5-5-5--5-5-5-5--5-5-5-5--5-5-5-5--3-3-3-3--7-7-7-7--|
A|-5-5-5-5--3-3-3-3--5-5-5-5--3-3-3-3--5-5-5-5--3-3-3-3--3-3-3-3--5-5-5-5--|
E|-3-3-3-3-----------3-3-3-3-----------3-3-3-3-----------1-1-1-1-----------|

e|--------------------------------------------------|
B|--------------------------------------------------|
G|--5-5-5-5--7-7-7-7--5-5-5-5--7-7-7-7--5-5-5-5--7--|
D|--5-5-5-5--7-7-7-7--5-5-5-5--7-7-7-7--5-5-5-5--7--|
A|--3-3-3-3--5-5-5-5--3-3-3-3--5-5-5-5--3-3-3-3--5--|
E|--------------------------------------------------|

e|--------------------------------------------------------------|
B|--------------------------------------------------------------|
G|--------------------------------------------------------------|
D|--------------------------------------------------------------|
A|--------------------------------------------------------------|
E|--\\\\3-5-7-8--x-x-x-x--3-5-7-8--x-x-x-x--3-5-7-8--7--5---3~~-|
Tap to rate this tab
 
# A B C D E F G H I J K L M N O P Q R S T U V W X Y Z