Song name
# A B C D E F G H I J K L M N O P Q R S T U V W X Y Z

Mcfly - End Of The World tab

Got the album yesterday, loving it, thought I'd tab a few I've learnt.

This is a fairly rough version just to get you playing along!

Verse:

I thought I saw something moving...

e|---------------|
B|---------------|
G|---------------|
D|---------------|
A|----3333--6----|
E|--------36-----|

Keep following it.

Bridge:

Looking in her eyes, I can see forever..

e|--------------------------------|
B|--------------------------------|
G|--------------------------------|
D|--------------------------------| Or just play the verse for this.
A|----35685----3333--6---3333--6--|
E|-----------------36--------36---|

I heard somebody saying | Were being
hypnotised | And if its true | Then I really
think this could be.

e|------------------------|
B|------------------------|
G|------------------------|
D|-------------55-55-55---|
A|----35685----55-55-55---|
E|-------------33-33-33---|

Chorus:

The end of the world | The Skys falling down
| So guys grab your girls | And spread the
word around

e|-------------------------|
B|-------------------------|
G|----55557777888810101010-|
D|----55557777888810101010-| x2
A|----3333555566668-8-8-8--|
E|-------------------------|

e|--------------------------------------|
B|--------------------------------------|
G|--------777710----5555555555555-------|
D|----5555777710----3333333333333-------|
A|----555555558-----3333333333333-------|
E|----3333------------------------------|

Basically follow these patterns throughout the song.

There is only one bit that differs and that is the little bridge bit just after the 
of the song. Around 2.20. Happens after the second and third choruses.

e|---------------------------------------12-14-16--12-14-16--|
B|------------13-13-15--13-13-15-----------------------------|
G|----121210----------------------10108----------------------|
D|----xxxxxx----------------------xxxxx----------------------|
A|----10108-----------------------8-8-6----------------------|
E|-----------------------------------------------------------|

e|------------14-16-17--14-16-17---------7-8-7-8-7-8-7-8-7-8--|
B|------------------------------------------------------------|
G|----121210----------------------10108-----------------------|
D|----xxxxxx----------------------xxxxx-----------------------|
A|----10108-----------------------8-8-6-----------------------|
E|------------------------------------------------------------|

Hope you enjoy it!
Tap to rate this tab
 
# A B C D E F G H I J K L M N O P Q R S T U V W X Y Z