Mcfly - End Of The World tab

Verse:

I thought I saw something moving...

e|---------------|
B|---------------|
G|---------------|
D|----0---1------|
A|-000-00--------| [All "0"'s are Palm Muted]
E|---------------|
PM ...... 


I really think this could be.

e|------------------------|
B|------------------------|
G|-55-55-5----------------|
D|-55-55-5----------------|
A|-33-33-3----------------|
E|------------------------|

Chorus:

Its the end of the world...

e|-------------------------|
B|-------------------------|
G|-10----5-----------------|
D|-10----5---5-------------| 
A|--8----3---5-------------|
E|-----------3-------------|


Verse:

I sold my soul to the devil...

e|---------------|
B|---------------|
G|---------------|
D|----0---1------|
A|-000-00--------| [All "0"'s are Palm Muted]
E|---------------|
PM ...... 

Chorus:

Its the end of the world...

e|-------------------------|
B|-------------------------|
G|-10----5-----------------|
D|-10----5---5-------------| 
A|--8----3---5-------------|
E|-----------3-------------|

Bridge/Ending:

e|-------------------------|
B|-----8h10-12--8h10-12~---|
G|-55----------------------|
D|-555---------------------| 
A|-335---------------------|
E|---3---------------------|

e|-------------------------|
B|-----12h14-16--12h14-16~-|
G|---5---------------------|
D|-555---------------------| 
A|-553---------------------|
E|-33----------------------|

e|-----8h10-12--8h10-12~---|
B|-------------------------|
G|-55----------------------|
D|-555---------------------| 
A|-335---------------------|
E|---3---------------------|

e|-----(10-11)--(10-11)-(10-11-10-11-10-11^)|
B|------------------------------------------|
G|---5--------------------------------------|
D|-555--------------------------------------| 
A|-553--------------------------------------|
E|-33---------------------------------------|


Verse:

Looking in her eyes...

e|---------------|
B|---------------|
G|---------------|
D|----0---1------|
A|-000-00--------| [All "0"'s are Palm Muted]
E|---------------|
PM ...... 

I really think this could be.

e|------------------------|
B|------------------------|
G|-55-55-5----------------|
D|-55-55-5----------------|
A|-33-33-3----------------|
E|------------------------|


Chorus:

Its the end of the world...

e|-------------------------|
B|-------------------------|
G|-10----5-----------------|
D|-10----5---5-------------| 
A|--8----3---5-------------|
E|-----------3-------------|

Bridge/Ending:

e|-------------------------|
B|-----8h10-12--8h10-12~---|
G|-55----------------------|
D|-555---------------------| 
A|-335---------------------|
E|---3---------------------|

e|-------------------------|
B|-----12h14-16--12h14-16~-|
G|---5---------------------|
D|-555---------------------| 
A|-553---------------------|
E|-33----------------------|

e|-----8h10-12--8h10-12~---|
B|-------------------------|
G|-55----------------------|
D|-555---------------------| 
A|-335---------------------|
E|---3---------------------|

e|-----(10-11)--(10-11)-(10-11-10-11-10-11^)|
B|------------------------------------------|
G|---5--------------------------------------|
D|-555--------------------------------------| 
A|-553--------------------------------------|
E|-33---------------------------------------|



Tap to rate this tab
 
# A B C D E F G H I J K L M N O P Q R S T U V W X Y Z