Song name
# A B C D E F G H I J K L M N O P Q R S T U V W X Y Z

Mcfly - I Need A Woman chords

Highlighted       Show chord diagrams
 (intro)

E|--------------------|
B|--------------------|
G|--------------------|
D|--------------------|
A|-------3---1--------|
E|-1-3-5---3----------|


F
I've been searching for some
Love and affection but there's
Nobody giving me that kind of attention
     Bb
I'm alone
          F
Oh, I'm alone
 F
Can't help thinking that there's
Somebody missing who should
Hold me and please me 'til I'm
Tired of her kissing
     Bb
I'm alone
          F
Oh, I'm alone

Bb C
But when it gets to midnight
Bb C
I'm in my bed alone
Bb C
You're all I want
Bb C
You're all I need
Bb C
It's cold in the night
But I'm looking for the heat

     F            C
Baby I, I need a woman
         Bb
Not any woman
      Dm                 C
But a woman who needs me too
              F
So how about you?

E|--------------------|
B|--------------------|
G|--------------------|
D|--------------------|
A|-------3---1--------|
E|-1-3-5---3----------|



 F
Songs on the radio are
Just carbon copies of the
Way that I'm feeling after
Five cups of coffee
     Bb
I'm alone
          F
Oh, I'm alone

Bb C
But when it gets to sunrise
Bb C
I'm waking up alone
Bb C
You're all I want
Bb C
You're all I need
Bb C
This bed is burning up 99 degrees

      F            C
Honey I, I need a woman
         Bb
Not any woman
      Dm                 C
But a woman who needs me too
F            C
I, I need a woman
         Bb
Not any woman
      Dm                 C
But a woman who needs me too
              F     C Bb Dm C
So how about you?

(riff 3x)
E|--------------------|
B|--------------------|
G|--------------------|
D|--------------------|
A|-------3---1--------|
E|-1-3-5---3----------|

           F            C
Believe me I, I need a woman
         Bb
Not any woman
      Dm                 C
But a woman who needs me too
F            C
I, I need a woman
         Bb
Not any woman
      Dm                 C
But a woman who needs me too
              F
So how about you?

(riff 3x)
E|--------------------|
B|--------------------|
G|--------------------|
D|--------------------|
A|-------3---1--------|
E|-1-3-5---3----------|
Tap to rate this tab
# A B C D E F G H I J K L M N O P Q R S T U V W X Y Z