Mcfly - I Need A Woman tab

MY FIRST TAB!!
I NEED A WOMAN BY MCFLY!!AWESOME TUNE!!ENJOY LEARNING!!
Intro X 4
            G
e|-----------------------|
B|-----------------------|
G|-----------------------|
D|-----------------------|
A|--------5-3-------5-3--|
E|-3--5s7--5-3--5s7--5-3-|

Verse 1,2
            G
e|----------------------------------------------|
B|----------------------------------------------|
G|----------------------------------------------|
D|----------------------------------------------|
A|--------5-3-------5-3----------5-3-------5-3--|
E|-3--5s7--5-3--5s7--5-3--3--5s7--5-3--5s7--5-3-|
            G
e|-----------------------------------------------|
B|-----------------------------------------------|
G|-----------------------------------------------|
D|-----------------------------------------------|
A|--------5-3-------5-3----------5-3------5-7-5-3|
E|-3--5s7--5-3--5s7--5-3--3--5s7--5-3--5s7-7-----|
            C x 2
e|-------------------|
B|-------------------|
G|-------------------|
D|-----5-3-------5-3-|
A|-5s7--5-3--5s7--5-3|
E|-------------------|
            G
e|-------------------|
B|-------------------|
G|-------------------|
D|-------------------|
A|--------5-3-------5|
E|-3--5s7--5-3--5s7--|

BRIDGE 
   D X 5(LAST D STRUM LONGER)
e|-XXXX--|
B|-XXXX--|
G|-0007--|
D|-0007--|
A|-5555--|
E|-XXXX--|

CHORUS
 G           D          Am          Em               D
I, I need a woman. Not any woman but a woman who needs me too.
    D
Hey so how about you??

INTERLUDE 
G D Am Em D..


DO RATE AITES!!ABOVE THE NOISE ROCKS!!
Tap to rate this tab
 
# A B C D E F G H I J K L M N O P Q R S T U V W X Y Z