Song name
# A B C D E F G H I J K L M N O P Q R S T U V W X Y Z

Mcfly - Transylvania tab

This is the Acoustic version of Transylvania from Supercity
Link: http://www.youtube.com/watch?v=PiOw6cHDOes

This is my first tab, so I'm sorry if any of it is a bit off or something :P
-----------------------
Chords:
F5 (133xxx)
C5 (0355xx)
C#5 (0355xx)
Bb5 (688xxx)
G5 (355xxx)
G#5 (466xxx)
-----------------------
Verse 1:
F5               C5
Anne Boleyn, she kept a tin,
      F5                C5
Which all her hopes and dreams were in,
    C#5           Bb5             G5
She plans to run away with him forever 

(never to be seen again)
|-----------------------------|
|-----------------------------|
|-----------------------------|
|-----------------------------|
|-3-3-1-1---------------------|
|---------4-4-3-3-------------|

F5                C5
Leaves a note and starts to choke,
    F5                   C5
can feel the lump that's in her throat,
     C#5             Bb5                 G5
It's raining and she leaves her coat in silence.

Pre-Chorus: 
|-----------------------------|
|-----------------------------|
|-----------------------------|
|-----------------------------| (4x)
|-3-3-1-1---------------------|
|---------4-4-3-3-------------|

We're sorry, but we disagree
The boy is vermin, can't you see?
We'll drown his sins and miseries
                           F5
And rip him out of history

Chorus:
F5                      C5
People marching to the drums,
                   C#5                 G#5   Bb5  
Everybody's having fun to the sound of love,
F5                      C5            
Ugly is the world we're on
                          C#5
If I'm right and prove me wrong
                C5      Bb5       G#5
I'm stunned (to find a place we belong)
C#5               G#5
Who is your lover,
C5         C#5
I couldn't tell,
                  G#5
When hell freezes over,
C5               C#5
That's when Iíll tell,
            G#5
Who is your lover,
            
I couldn't tell,
                F5
When will this stop.

Verse 2:
F5             C5
Racing, pacing in the dark,
      F5              C5
She's searching for a lonely heart,
    C#5               Bb5
She finds him but his heart had stopped,
    G5
She breaks down.

Pre-Chorus:
|-----------------------------|
|-----------------------------|
|-----------------------------|
|-----------------------------| (4x)
|-3-3-1-1---------------------|
|---------4-4-3-3-------------|

Sorry, but your majesty,
Refusing orders from the queen
Has upset her monstrosity
                                    F5
Remembers a voice and hears him sing

Chorus:
F5                      C5
People marching to the drums,
                   C#5                 G#5  Bb5  
Everybody's having fun to the sound of love,
F5                      C5            
Ugly is the world we're on
                           C#5
If I'm right and prove me wrong
                C5     Bb5         G#5
I'm stunned (to find a place we belong)
C#5          G#5
Who is your lover,
C5         C#5
I couldn't tell,
                   G#5
When hell freezes over,
C5               C#5
That's when Iíll tell,
             G#5
Who is your lover,
            
I couldn't tell,
                F5
When will this stop.
Solo:
|---------------------------------------------------------------------------|
|---------------------------------------------------------------------------|
|-------------------------------5-----5------5------------------------------|
|-3-6-3-3-6p3-3s5-8-5-5-8p5ó5s6---6-6---6---6---6-3--3-6-3-3-6p3-3s5-8-5-5--|
|------------------------------------------4----3---------------------------|
|---------------------------------------------------------------------------|

|--------------------|
|--------------------|
|---------5-----5----|
|-8p5ó5s6---6-6---6--|
|--------------------|
|--------------------|

G#5, G5

Chorus:
F5                      C5
People marching to the drums,
                   C#5                 G#5  Bb5  
Everybody's having fun to the sound of love,
F5                      C5            
Ugly is the world we're on
                           C#5
If I'm right and prove me wrong
                 C5    Bb5         G#5
I'm stunned (to find a place we belong)
C#5          G#5
Who is your lover,
C5         C#5
I couldn't tell,
                  G#5
When hell freezes over,
     C5                C#5
-To find a place we belong-
             G#5
Who is your lover

|-----------------------------|
|-----------------------------|
|-----------------------------|
|-----------------------------| (4x)
|-3-3-1-1---------------------|
|---------4-4-3-3-------------|

End on F5

~*~

Key:
p - pulloff
s - slide
Tap to rate this tab
 
# A B C D E F G H I J K L M N O P Q R S T U V W X Y Z