Song name
# A B C D E F G H I J K L M N O P Q R S T U V W X Y Z

Meat Puppets - Head tab

Head
Album: NO JOKE
Tabbed by: Halvor Wold
Song written by: Kirk Kirkwood
My e-mail: wold.halvor@organizer.net

Verse Part One:
e|---------------|
B|---------------|
G|-9-9x-x9-9x-x9-|
D|-9-9x-x9-9x-x9-|
A|-7-7x-x7-7x-x7-|
E|---------------|

Verse Part Two:
e|---------------------|
B|---------------------|
G|-14-14x-x14-14-15-14-|
D|-14-14x-x14-14-15-14-|
A|-12-12x-x12-12-13-12-|
E|---------------------|

e|---------------------|
B|---------------------|
G|-11-11x-x11-11-12-11-|
D|-11-11x-x11-11-12-11-|
A|-9--9-x-x9--9--10-9--|
E|---------------------|

Chorus:
e|-3--3---2--2-2------------0-------------0-----|
B|-3--3---3--3---3--------1---1---------1---1---|
G|-0--0---2--2-----2----0-------0-----0-------0-|
D|-0--0---0--0--------2-------------2-----------|
A|-2--2-----------------------------------------|
E|-3--3-----------------------------------------|
Tap to rate this tab
 
# A B C D E F G H I J K L M N O P Q R S T U V W X Y Z