Guitaretab - guitar tabs
Song name
# A B C D E F G H I J K L M N O P Q R S T U V W X Y Z

Meat Puppets - Aurora Borealis tab

Aurora Borealis
by Meat Puppets
tabbed by JA
tune all strings up half step
almost surf-y reverb and just a hint of delay

Intro
E-2--/-10-8----8------------0-|
B-3--/------10---8----------0-|
G-2--/-------------10---9----|
D-0----------------------9----|
A-0----------------------7----|
E-----------------------------|


Main Theme
E-0--0---2--2--(13)11------------------------|
B-1--1---3--3---------11h13p11-----10--10-10-|
G-0-0---2--2---13-------------13--11--11-11-|
D-2-2---0--0----------------------12--12-12-|
A-3-3---0--0--------------------------------|
E--------------------------------------------|

E-------10p8--------------0-|
B-------------10p8----(0)-0-|
G(10-10)-----------10-----9-|
D-------------------------9-|
A-------------------------7-|
E---------------------------|

[ Tab from: http://www.guitaretab.com/m/meat-puppets/143533.html ]
Interlude 1        Interlude 2
E----0---0-------  ------------0-|
B----0-----(0)---  -----0--------|
G----9---7-------  --------0-----|
D----9------9----  -9------------|
A----7---------7-  --------------|
E-0--------------  --------------|


E--------------0---------------------------|
B------------1-------3p1---1---1---------1-|
G---------0--------------0-------0-----0---|
D---0---2----------2---------------0h2-----|
A-2---3------------------------------------|
E------------------------------------------|
     Play with C using pinky to improv

E-0----3----0-----0--3--0---0-|
B-0----0----0-----0--0--0---0-|
G-0----0----0-----0--0--0---0-|
D-2----2----------2--2--------|
A-2----2----------2--2--------|
E-0----0----------0--0--------|


E-0-----------3p0---0---3--3--3-3---0---0-3-3-3-0---0---0-|
B-1--------1------1-----1--1--1-1-3---3-----------3---3---|
G-0------0--------------0--0--0-0-0---0-0-0-0-0-0-0-0-0-0-|
D-2--0h2----------------2--2--2-2-2-2-2-2-2-2-2-2-2-2-2-2-|
A-3---------------------3--3--3-3-3-3-3-3-3-3-3-3-3-3-3-3-|
E---------------------------------------------------------|
                        strike chords harder here

For the second interlude Curt plays the same chords and notes, but plays with them a 
differently. Very very easy to figure out.
Related for Aurora Borealis tab