Guitaretab - guitar tabs
Song name
# A B C D E F G H I J K L M N O P Q R S T U V W X Y Z

Megadeth - Angry Again tab

#----------------------------------PLEASE NOTE---------------------------------#
#This file is the author's own work and represents their interpretation of the #
#song. You may only use this file for private study, scholarship, or research. #
#------------------------------------------------------------------------------#

ANGRY AGAIN
As recorded by Megadeth
(From the 1993 Album LAST ACTION HERO SOUNDTRACK)

Transcribed by /\X/\M
	

Words and Music by Dave Mustaine

Gtr I (E A D G B E) - 'Guitar 1 Dave Mustaine'
Gtr II (E A D G B E) - 'Guitar 2 Marty Friedman'
Gtr III (E A D G B E) - 'Guitar 3 Dave Mustaine '

 Intro Riff
  Q=132
 4/4
  Gtr I
  E E E E E E E E    E  E  E  E  E  E  E  E
|-----------------|-------------------------||
|-----------------|-------------------------||
|-----------------|-------------------------||
|-0-1-----4-5-----|--8--9-------12-13-------||
|-----2-------6---|-------10----------14----||
|-------3-------7-|----------11----------15-||
|
| Gtr II
| E E E E E E E E    E  E  E  E  E  E  E  E
|-----------------|-------------------------||
|-3-4-----7-8-----|-11-12-------15-16-------||
|-----4-------8---|-------12----------16----||
|-------5-------9-|----------13----------17-||
|-----------------|-------------------------||
|-----------------|-------------------------||


 Main Riff
  PM    PM            PM|   PM----|
  E E E E E E E E   E E E E E E E E
|-----------------|------------------|
|-----------------|------------------|
|-----------------|------------------|
|-----2-----2-----|------------------|
|---2-----3---3-2-|-2-----2----------|
|-0-----0---------|-0-0-0-0-0-0-0-0--|
|
| PM    PM            PM|   PM----|
| E E E E E E E E   E E E E E E E E
|-----------------|------------------|
|-----------------|------------------|
|-----------------|------------------|
|-----2-----2-----|------------------|
|---2-----3---3-2-|-2-----2----------|
|-0-----0---------|-0-0-0-0-0-0-0-0--|


  Gtrs I, II
  PM    PM            PM|                     PM            PM|
  E E E E E E E E   E E E E E a E E E   E E E E E E E E   E E E E E a E E E
|-----------------|-------------------|-----------------|-------------------|
|-----------------|-------------------|-x---------------|-------------------|
|-----------------|-------------------|-x---------------|-------------------|
|-----2-----2-----|-------------------|-x---2-----2-----|-------------------|
|---2-----3---3-2-|-2-----2---2s4-3-2-|---2-----3---3-2-|-2-----2---2s4-3-2-|
|-0-----0---------|-0-0-0-0-0-3s5-4-3-|-------0---------|-0-0-0-0-0-3s5-4-3-|


  Gtrs I, II
                            PM|
  E a E E E E a E E E   +E  E E E +E  E    +E   E
|---------------------|---------------------------|
|---------------------|---------------------------|
|---------------------|---------2-(2)-------------|
|-------------------7-|-(7)-----------------------|
|---2s4-3-2---2s4-3-5-|-(5)-----3-(3)-----------2-|
|---3s5-4-3---3s5-4---|-----0-0-------3b4==(3)r-0-|


   Verse
    $                 $$
          PM            PM|   PM----|
    E E E E E E E E   E E E E E E E E
||------------------|-----------------|
||o-----------------|-----------------|
||------------------|-----------------|
||------2-----2-----|-----------------|
||o---2-----3---3-2-|-2-----2---------|
||--------0---------|-0-0-0-0-0-0-0-0-|


                                                          1.
  PM    PM            PM|                     PM            PM|   PM----|
  E E E E E E E E   E E E E E a E E E   E E E E E E E E   E E E E E E E E
|-----------------|-------------------|-----------------|------------------|
|-----------------|-------------------|-x---------------|------------------|
|-----------------|-------------------|-x---------------|------------------|
|-----2-----2-----|-------------------|-x---2-----2-----|------------------|
|---2-----3---3-2-|-2-----2---2s4-3-2-|---2-----3---3-2-|-2-----2----------|
|-0-----0---------|-0-0-0-0-0-3s5-4-3-|-------0---------|-0-0-0-0-0-0-0-0--|


                                                  2.
                        PM|                         PM|   PM
  E E E E E E E E   +E  E E E +E  E    +E   E     E E E E E a E E E
|-----------------|----------------------------||-------------------|
|-----------------|---------------------------o||-------------------|
|-----------------|---------2-(2)--------------||-------------------|
|-----2-----2---7-|-(7)------------------------||-------------------|
|---2-----3---0-5-|-(5)-----3-(3)-----------2-o||-2-----2---2s4-3-2-|
|-0-----0---------|-----0-0-------3b4==(3)r-0--||-0-0-0-0-0-3s5-4-3-|


                            PM|
  E a E E E E a E E E   +E  E E E +E  E    +E   E
|---------------------|---------------------------||
|---------------------|---------------------------||
|---------------------|---------2-(2)-------------||
|-------------------7-|-(7)-----------------------||
|---2s4-3-2---2s4-2-5-|-(5)-----3-(3)-----------2-||
|---3s5-4-3---3s5-3---|-----0-0-------3b4==(3)r-0-||


  Gtr I
  E E E E E E E E    E  E  E  E  E  E  E  E
|-----------------|-------------------------||
|-----------------|-------------------------||
|-----------------|-------------------------||
|-0-1-----4-5-----|--8--9-------12-13-------||
|-----2-------6---|-------10----------14----||
|-------3-------7-|----------11----------15-||
|
| Gtr II
| E E E E E E E E    E  E  E  E  E  E  E  E
|-----------------|-------------------------||
|-3-4-----7-8-----|-11-12-------15-16-------||
|-----4-------8---|-------12----------16----||
|-------5-------9-|----------13----------17-||
|-----------------|-------------------------||
|-----------------|-------------------------||


 Chorus
     PM     PM                PM|   PM    PM
   E E E  E E  E  E  E    +E  E E E E E E E
|----------------------|--------------------|
|----------------------|--------------------|
|----------------------|--------------------|
|--5---4--5----9--7--5-|--(5)-----2---4-4---|
|--7---5--7---10--9--7-|--(7)-----3---5-5---|
|----0------0----------|------0-0---0-----0-|
|
|    PM     PM                PM|   PM    PM
|  E E E  E E  E  E  E    +E  E E E E E E E
|----------------------|--------------------|
|----------------------|--------------------|
|----------------------|--------------------|
|--9---7--9---12-10--9-|--(9)-----5---7-7---|
|-10---9-10---14-12-10-|-(10)-----7---9-9---|
|----0------0----------|------0-0---0-----0-|


     PM     PM                PM|       PM--|
   E E E  E E  E  E  E    +E  E E E +E  E E E
|----------------------|----------------------|
|----------------------|----------------------|
|----------------------|----------------------|
|--5---4--5----9--7--2-|--(2)-----4-(4)-------|
|--7---5--7---10--9--3-|--(3)-----5-(5)-------|
|----0------0----------|------0-0-------0-0-0-|
|
|    PM     PM                PM|       PM--|
|  E E E  E E  E  E  E    +E  E E E +E  E E E
|----------------------|----------------------|
|----------------------|----------------------|
|----------------------|----------------------|
|--9---7--9---12-10--9-|--(9)-----7-(7)-------|
|-10---9-10---14-12-10-|-(10)-----9-(9)-------|
|----0------0----------|------0-0-------0-0-0-|


     PM     PM                PM|   PM    PM
   E E E  E E  E  E  E    +E  E E E E E E E
|----------------------|--------------------|
|----------------------|--------------------|
|----------------------|--------------------|
|--5---4--5----9--7--5-|--(5)-----2---4-4---|
|--7---5--7---10--9--7-|--(7)-----3---5-5---|
|----0------0----------|------0-0---0-----0-|
|
|    PM     PM                PM|   PM    PM
|  E E E  E E  E  E  E    +E  E E E E E E E
|----------------------|--------------------|
|----------------------|--------------------|
|----------------------|--------------------|
|--9---7--9---12-10--9-|--(9)-----5---7-7---|
|-10---9-10---14-12-10-|-(10)-----7---9-9---|
|----0------0----------|------0-0---0-----0-|


                                  To Coda
                                  To Coda
     PM     PM             PM|       PM|
   E E E  E E  E E E   +E  E E E +E  E E E
|--------------------|---------------------|
|--------------------|---------------------|
|--------------------|---------------------|
|--5---4--5----9-7-2-|-(2)-----5-(5)-----2-|
|--7---5--7---10-9-3-|-(3)-----2-(2)-----0-|
|----0------0--------|-----0-0-------0-0---|
|
|    PM     PM             PM|       PM|
|  E E E  E E  E E E   +E  E E E +E  E E E
|--------------------|---------------------|
|--------------------|---------------------|
|--------------7-5-4-|-(4)-----4-(4)-----4-|
|--9---7--9----9-7-5-|-(5)-----5-(5)-----2-|
|-10---9-10----------|---------------------|
|----0------0--------|-----0-0-------0-0---|


              D.S. al Coda     &
      PM|                          PM|
  +E  E E E +E  E    +E   E     E  E E E +E  E    +E   E
|---------------------------||---------------------------|
|---------------------------||---------------------------|
|---------------------------||---------------------------|
|-(2)-----0-(0)-------------||-(2)-----0-(0)-------------|
|-(0)-----2-(2)-------------||-(0)-----2-(2)-------------|
|-----0-0-------3b4==(3)r-0-||-----0-0-------3b4==(3)r-0-|
|
|     PM|                          PM|
| +E  E E E +E  E    +E   E     E  E E E +E  E    +E   E
|---------------------------||---------------------------|
|---------------------------||---------------------------|
|-(4)-----4-(4)-------------||-(4)-----4-(4)-------------|
|-(2)-----5-(5)-------------||-(2)-----5-(5)-------------|
|---------------------------||---------------------------|
|-----0-0-------3b4==(3)r-0-||-----0-0-------3b4==(3)r-0-|


 Bridge
  Gtrs I, II
  E E E E E E E E   E E E E E E E E   E E E E E E E E   E E E E E E E E
|-----------------|-----------------|-----------------|-----------------|
|-----------------|-----------------|-----------------|-----------------|
|-----------------|-----------------|-----------------|-----------------|
|-----------------|-----------------|-----------------|-----------------|
|-----------------|-----------------|-----------------|-----------------|
|---0-0-0---0-0-0-|---1-1-1---1-1-1-|---2-2-2---2-2-2-|---3-3-3---3-3-3-|


  E E E E E E E E   E E E E E E E E   E E E E E E E E   +E  E E E +E  E E E
|-----------------|-----------------|-----------------|---------------------||
|-----------------|-----------------|-----------------|---------------------||
|-----------------|-----------------|-----------------|---------2-(2)-------||
|-----------------|-----------------|---------------7-|-(7)---------------9-||
|-----------------|-----------------|---------------5-|-(5)-----3-(3)-----7-||
|---4-4-4---4-4-4-|---5-5-5---5-5-5-|---6-6-6---6-6---|-----0-0-------3p0---||


 Guitar Solo
  Gtrs I, II
       PM------|            PM|
  +Q   E E E E E E      +E  E E  E  +E  E E E
|---------------------|-----------------------|
|---------------------|-----------------------|
|---------------------|----------2--(2)-------|
|-(9)------------7----|-(7)-----------------9-|
|-(7)------------5----|-(5)------3--(3)-----7-|
|------0-0-0-0-0------|-----0-0---------3p0---|
|
| Gtr III
|                                ~~~~~~~~
|  Q   Q   Q   E E      +Q.     +E  +H
|---------------------|-----------------------|
|---------------------|-----------------------|
|------4S==9S==4-4b5==|=(4)-----(4)-(4)r======|
|---------------------|-----------------------|
|---------------------|-----------------------|
|---------------------|-----------------------|


       PM---------|            PM|
  +Q   E E E E     E  E    +E  E E E +E  E E E
|-----------------------|-----------------------|
|---------------------0-|--(0)------------------|
|---------------------2-|--(2)-----2-(2)--------|
|-(9)-----------------0-|--(0)---------------9--|
|-(7)-------------------|----------3-(3)-----7--|
|------0-0-0-0-----0----|------0-0-------3p0----|
|
|                     ~~~~~~~~~    ~
| +Q   Q   Q    a  E  E    +Q    E E +Q    Q
|-----------------------|-----------------------|
|--------------10s12-10-|-(10)---8-7-(7)--------|
|-(4)--4s==9------------|------------------7p===|
|-----------------------|-----------------------|
|-----------------------|-----------------------|
|-----------------------|-----------------------|


  Gtrs I, II
              PM-------------------|
  +Q          E    E     E    E    E     E
|--------------------------------------------|
|--------------------------------------------|
|----------------------------------------4---|
|-(9)----------------------------------------|
|-(7)------------------------------------5---|
|-------------0----0-----0----0----0---------|
|
| Gtr III
|  S  S  S S  S  S S  S  S S  S  S S  S  S S
|------------------0----12p0----12p0----10p0-|
|---------------12---12------12------12------|
|--0--9-12p0-12------------------------------|
|--------------------------------------------|
|--------------------------------------------|
|--------------------------------------------|


         PM---|
  +E     E     E    E    +E         E        E     E
|-----------------------------------------------------|
|-----------------------------------------------------|
|-(4)---------------2----(2)--------------------------|
|--------------------------------------------------9--|
|-(5)---------------3----(3)-----------------------7--|
|--------0-----0--------------------3p=======0--------|
|
|                                   |--3--|
|  S   S S  S  S S  S  S  S   T  T  S  S  S  S  S  E
|-----10p0-10-14p0-12-14-15--14-15-12h14p12----12-----|
|-12----------------------------------------15----15--|
|-----------------------------------------------------|
|-----------------------------------------------------|
|-----------------------------------------------------|
|-----------------------------------------------------|

[ Tab from: http://www.guitaretab.com/m/megadeth/11721.html ]
                     PM-----------------|                                     PM-------|
           +Q        E     E   E   E     E        E         +E                E         E       E    +E  E   E   E
|---------------------------------------------------------|--------------------------------------------------------|
|---------------------------------------------------------|--------------------------------------------------------|
|-------------------------------------------------4-------|-(4)---------------------------------2----(2)-----------|
|----------(9)--------------------------------------------|--------------------------------------------------------|
|----------(7)------------------------------------5-------|-(5)---------------------------------3----(3)---------2-|
|--------------------0-----0---0---0-----0----------------|-------------------0---------0----------------3p==0---0-|
|
|                          ~~~~~~~                                                                    ~~~
|                                        |------6-------|                     |--3---|
|  a       +E   +E   S  S  E  +E   S  S  S  S  S  S  S  S    S   a      +S   +S   S  S  S T  T  S  S  Q     +Q
|---------------------------------------12h17p12----------|--------------------------------------------------------|
|-15pb17==(15)r(15)-12h15-12-(12)-12h15----------15p12----|-12-------------------------14--------------------------|
|------------------------------------------------------14-|-----14b16==(14)r(14)-12----14------12h14p12----(12)\---|
|---------------------------------------------------------|-------------------------14------14---------------------|
|---------------------------------------------------------|--------------------------------------------------------|
|---------------------------------------------------------|--------------------------------------------------------|


                     PM
       +E  E  E      E         E   E           E           E
|-------------------------------------------------------------|
|-------------------------------------------------------------|
|-------------------------------------------------------------|
|-------------2--------------------2--------------------------|
|------(2)-2-------------------3---------------3-----------2--|
|------(0)-----------0----------------------------------------|
|
|                              |-----------3-----------|
| a    +Q    +E     +E   a    +q     a    +q     a    +q
|-------------------------------------------------------------|
|-------------------------------------------------------------|
|-2b4==(2)r==(2)b4==(2)r-2b4==(2)r---2b4==(2)r---2b4==(2)r----|
|-------------------------------------------------------------|
|-------------------------------------------------------------|
|-------------------------------------------------------------|


                                             PM-------------|
        E                     E    E     E   E     E    E   E
|---------------------------------------------------------------|
|---------------------------------------------------------------|
|---------------------------------------------------------------|
|-------0---------------------1---------------------------------|
|----------------------------------2----------------------------|
|----------------------------------------3---2-----1----2---3---|
|
|                                |--3--|   |--3--|
| a    +s   a     +S   a     +S  E   E E   E   E E   E    S S S
|---------------------------------------------------------------|
|---------------------------------------------------------------|
|-2b4==(2)r-2pb3==(2)r-2pb4==(2)-2---2-2---2---2-2---2r---4p2p0-|
|---------------------------------------------------------------|
|---------------------------------------------------------------|
|---------------------------------------------------------------|


  E E E E E E E E   E E E E E E E E
|-----------------|-----------------||
|-----------------|-----------------||
|-----------------|-----------------||
|-----2-----2-----|-0-1-----4-5-----||
|---2-----3---3-2-|-----2-------6---||
|-0-----0---------|-------3-------7-||
|
| E E E E E E E E   E E E E E E E E
|-----------------|-----------------||
|-----------------|-----------------||
|-----4-----4-----|---------4-5-----||
|-2-5---2-5---5-2-|-6-7-4-------7-4-||
|-----------------|-5-6---6---------||
|-----------------|-----------------||


                                                                     PM------------|
    E  E     E  E    a  E     E     E   E     E         E   E     E  E   E E       E
|-------------------------------------------|------------------------------------------|
|-------------------------------------------|------------------------------------------|
|-------------------------------------------|------------------------------------------|
|------------4----------------4-------------|-2---------3------------------------------|
|------4-------------4s=5-----------5---4---|---------------4--------------------------|
|---2-----------2---------------------------|---------------------5--4---3-4-------5---|
|
|                                                                    ~~~~
|   E  S  S  E  S  S    S  S  S  S  E  +E     S S a    +E  +Q       +Q     T T T T S S
|-------------------------------------------|------------------------------------------|
|-/10-10-10-10-10-10---10s12-12-12-12-(12)\-|------------------------------------------|
|-------------------------------------------|-0-4-4b6==(4)r(4)b6====(4)r---2h3p2---2-2-|
|--/7--7--7--7--7--7----7s=9--9--9--9--(9)\-|-0----------------------------------4-----|
|-------------------------------------------|------------------------------------------|
|-------------------------------------------|------------------------------------------|


  E     E   E   E     a        E   E E   E
|-------------------------------------------------|
|-------------------------------------------------|
|-------------------------------------------------|
|-----------4----------------------4--------------|
|-------4-------------4s=======5-----5---4--------|
|-2-------------2---------------------------------|
|
|                                        \0.5/
|    ~~~                       ~~~~~
| S  E.    +E   s  s  a       +Q.        S      S
|-------------------------------------------------|
|-2s10----(10)-10-10-10pb12==(10)r-----/17-----14-|
|-------------------------------------------------|
|-------------------------------------------------|
|-------------------------------------------------|
|-------------------------------------------------|


                                          PM---------------------|
           E            E    E   E        E        E     E        E
|-------------------------------------------------------------------------||
|-------------------------------------------------------------------------||
|-------------------------------------------------------------------------||
|----------2------------3-------------------------------------------------||
|----------------------------4--------------------------------------------||
|--------------------------------5--------4--------3-----2--------1-------||
|
|                       ~~~~~~~~~
|                                         |--3--|        |------6-------|
|  a      +E    a      +E   +E.     S  a  S  S  S  S  S  S  S  S  S  S  S
|-17b19==(17)r-17b19==(17)-(17)r---19-19h20p19p17-19-17----------------17-||
|-------------------------------------------------------20p19p17-19h20----||
|-------------------------------------------------------------------------||
|-------------------------------------------------------------------------||
|-------------------------------------------------------------------------||
|-------------------------------------------------------------------------||


                                  D.S.S. al Dbl. Coda
                              PM
           E   E          E   E          E  E   E    E
|-------------------------------------------------------|
|-------------------------------------------------------|
|-------------------------------------------------------|
|-------------------------2-----------------2-----------|
|--------------2-------------------------3------3----2--|
|-----------------------------0-------------------------|
|
|                                        ~~~~
|  a      +Q      a      +Q      a      +Q     +Q
|-22b24==(22)r---22b24==(22)r---22b24==(22)---(22)r\----|
|-------------------------------------------------------|
|-------------------------------------------------------|
|-------------------------------------------------------|
|-------------------------------------------------------|
|-------------------------------------------------------|


  &&
  Gtr I
      PM|                         PM|       PM|         PM|
   E  E E E +E  E    +E   E   +E  E E E +E  E E E   +E  E E E +E  E E E
|---------------------------|---------------------|---------------------||
|---------------------------|---------------------|---------------------||
|---------------------------|---------------------|---------------------||
|-(2)-----5-(5)-----------5-|-(5)-----5-(5)-----2-|-(2)-----5-(5)-------||
|-(0)-----2-(2)-----------3-|-(3)-----2-(2)-----0-|-(0)-----2-(2)-------||
|-----0-0-------3b4==(3)r---|-----0-0-------0-0---|-----0-0-------3p0-0-||
|
| Gtr II
|     PM|                         PM|       PM|         PM|
|  E  E E E +E  E    +E   E   +E  E E E +E  E E E   +E  E E E +E  E E E
|---------------------------|---------------------|---------------------||
|---------------------------|---------------------|---------------------||
|-(4)-----4-(4)-----------4-|-(4)-----4-(4)-----4-|-(4)-----4-(4)-------||
|-(2)-----5-(5)-----------5-|-(5)-----5-(5)-----2-|-(2)-----5-(5)-------||
|---------------------------|---------------------|---------------------||
|-----0-0-------3b4==(3)r---|-----0-0-------0-0---|-----0-0-------3p0-0-||


     PM     PM                PM|   PM    PM
   E E E  E E  E  E  E    +E  E E E E E E E
|----------------------|--------------------|
|----------------------|--------------------|
|----------------------|--------------------|
|--5---4--5----9--7--5-|--(5)-----2---4-4---|
|--7---5--7---10--9--7-|--(7)-----3---5-5---|
|----0------0----------|------0-0---0-----0-|
|
|    PM     PM                PM|   PM    PM
|  E E E  E E  E  E  E    +E  E E E E E E E
|----------------------|--------------------|
|----------------------|--------------------|
|----------------------|--------------------|
|--9---7--9---12-10--9-|--(9)-----5---7-7---|
|-10---9-10---14-12-10-|-(10)-----7---9-9---|
|----0------0----------|------0-0---0-----0-|


     PM     PM                PM|       PM--|
   E E E  E E  E  E  E    +E  E E E +E  E E E
|----------------------|----------------------|
|----------------------|----------------------|
|----------------------|----------------------|
|--5---4--5----9--7--2-|--(2)-----4-(4)-------|
|--7---5--7---10--9--3-|--(3)-----5-(5)-------|
|----0------0----------|------0-0-------0-0-0-|
|
|    PM     PM                PM|       PM--|
|  E E E  E E  E  E  E    +E  E E E +E  E E E
|----------------------|----------------------|
|----------------------|----------------------|
|----------------------|----------------------|
|--9---7--9---12-10--9-|--(9)-----7-(7)-------|
|-10---9-10---14-12-10-|-(10)-----9-(9)-------|
|----0------0----------|------0-0-------0-0-0-|


     PM     PM                PM|   PM    PM
   E E E  E E  E  E  E    +E  E E E E E E E
|----------------------|--------------------|
|----------------------|--------------------|
|----------------------|--------------------|
|--5---4--5----9--7--5-|--(5)-----2---4-4---|
|--7---5--7---10--9--7-|--(7)-----3---5-5---|
|----0------0----------|------0-0---0-----0-|
|
|    PM     PM                PM|   PM    PM
|  E E E  E E  E  E  E    +E  E E E E E E E
|----------------------|--------------------|
|----------------------|--------------------|
|----------------------|--------------------|
|--9---7--9---12-10--9-|--(9)-----5---7-7---|
|-10---9-10---14-12-10-|-(10)-----7---9-9---|
|----0------0----------|------0-0---0-----0-|


     PM     PM             PM|       PM|
   E E E  E E  E E E   +E  E E E +E  E E E
|--------------------|---------------------|
|--------------------|---------------------|
|------------------0-|-(0)-----------------|
|--5---4--5----9-7-2-|-(2)-----5-(5)-----2-|
|--7---5--7---10-9-3-|-(3)-----2-(2)-----0-|
|----0------0--------|-----0-0-------0-0---|
|
|    PM     PM             PM|       PM|
|  E E E  E E  E E E   +E  E E E +E  E E E
|--------------------|---------------------|
|--------------------|---------------------|
|--------------7-5-4-|-(4)-----4-(4)-----4-|
|--9---7--9----9-7-5-|-(5)-----5-(5)-----2-|
|-10---9-10----------|---------------------|
|----0------0--------|-----0-0-------0-0---|


  +E  E E E +E  Q     +E      E E E E E E E E
|--------------------------||-----------------|
|--------------------------||-----------------|
|--------------------------||-----------------|
|-(2)-----5-(5)------------||-0-1-----4-5-----|
|-(0)-----2-(2)------------||-----2-------6---|
|-----0-0-------3b4===(3)r-||-------3-------7-|
|
| +E  E E E +E  Q     +E      E E E E E E E E
|--------------------------||-----------------|
|--------------------------||-3-4-----7-8-----|
|-(4)-----4-(4)------------||-----4-------8---|
|-(2)-----5-(5)------------||-------5-------9-|
|--------------------------||-----------------|
|-----0-0-------3b4===(3)r-||-----------------|


              PM----|
   E  E  E  E E E E E   q  Q  H
|---------------------|------------*|
|---------------------|------------*|
|---------------------|------------*|
|--8--9---------------|-2----------*|
|-------10------------|-2----------*|
|----------11-2-1-2-3-|-0----------*|
|
|             PM----|
|  E  E  E  E E E E E   q  Q  H
|---------------------|------------*|
|-11-12---------------|------------*|
|-------12------------|------------*|
|----------13---------|-2----------*|
|---------------------|-2----------*|
|-------------2-1-2-3-|-0----------*|



Duration Legend
---------------
W - whole; H - half; Q - quarter; E - 8th; S - 16th; T - 32nd; X - 64th; a - acciaccatura
+ - note tied to previous; . - note dotted; .. - note double dotted
Uncapitalized letters represent notes that are staccato (1/2 duration)
Irregular groupings are notated above the duration line
Duration letters will always appear directly above the note/fret number it represents the
duration for.  Duration letters with no fret number below them represent rests.  Multi-
bar rests are notated in the form Wxn, where n is the number of bars to rest for.  Low
melody durations appear below the staff

Tablature Legend
----------------
 h   - hammer-on
 p   - pull-off
 b   - bend
 pb  - pre-bend
 r   - bend release (if no number after the r, then release immediately)
 /\  - slide into or out of (from/to "nowhere")
 s   - legato slide
 S   - shift slide
 - natural harmonic
[n]  - artificial harmonic
n(n) - tapped harmonic
 ~   - vibrato
 tr  - trill
 T   - tap
 TP  - trem. picking
 PM  - palm muting
\n/  - tremolo bar dip; n = amount to dip
 \n  - tremolo bar down
 n/  - tremolo bar up
/n\  - tremolo bar inverted dip
 =   - hold bend; also acts as connecting device for hammers/pulls
 <> - volume swell (louder/softer)
 x   - on rhythm slash represents muted slash
 o   - on rhythm slash represents single note slash

Misc Legend
-----------
 |  - bar
||  - double bar
||o - repeat start
o|| - repeat end
*|  - double bar (ending)
 :  - bar (freetime)
 $  - Segno
 &  - Coda
Tempo markers -  = BPM(8/16=s8/s16), where s8 = swing 8ths, s16 = swing 16ths

Related for Angry Again tab
Angry Again chords by Megadeth