Guitaretab - guitar tabs
Song name
# A B C D E F G H I J K L M N O P Q R S T U V W X Y Z

Megadeth - Lucretia tab

#----------------------------------PLEASE NOTE---------------------------------#
#This file is the author's own work and represents their interpretation of the #
#song. You may only use this file for private study, scholarship, or research. #
#------------------------------------------------------------------------------#

LUCRETIA
As recorded by Megadeth
(From the 1990 Album RUST IN PIECE)

Transcribed by cbliss66@aol.com
	

Words by Dave Mustaine Music by Dave Mustaine & Dave Ellefson
Arranged by Dave Mustaine & Dave Ellefson

F#5
2 4 x x x x
	
E5
0 2 x x x x
	
E5VII
x 7 9 x x x
	
F#5IX
x 9 11 x x x

Gtr I (E A D G B E) - 'Mustaine'
Gtr II (E A D G B E) - 'Friedman'
Gtr III (E A D G B E) - 'Solo Gtr.I (Friedman)'
Gtr IV (E A D G B E) - 'Solo (Mustaine)'
Gtr V (E A D G B E) - 'Scrapes'

   Intro
    Moderately Slow Rock Q=96
    F#5         E5  F#5         E5      F#5         E5  F#5         E5VII
   4/4
    Gtr II
    q       E   E   q       E   E       q       E   E   q       E   E
    |           |   |           |       |           |   |           |
    /           /   /           /       /           /   /           /

    Gtr I
      PM|   PM|   PM  PM|   PM|   PM      PM|   PM|   PM  PM|   PM|   PM
    S S S S S S S S S S S S S S S S  3x S S S S S S S S S S S S S S S S
||--5-----4-----7---5-----4-----7----||-5-----4-----7---5-----4-----7----|
||o---5-----5---------5-----5-------o||---5-----5---------5-----5--------|
||------6-----6---6-----6-----6---6--||-----6-----6---6-----6-----6---6--|
||-----------------------------------||----------------------------------|
||o---------------------------------o||----------------------------------|
||-----------------------------------||----------------------------------|


  F#5IX
  W                                   +H             +S  Q.           S
  |                                    |              |
  /                                    /              /

                                                         Gtrs I, II
                                                   ~~~~~~PM-----------|
  S S S S S S S S S S S S S S a S S    S S S S S S E +S  S  S S S S S S
|-5-----4---------------------------|-----------------------------------|
|---5-----5---5---------------------|-----------------------------------|
|-----6-----6---6-----------6-----9-|--8-----------7-(7)--------------7-|
|-----------------7-----6h7---7s9---|----9-------7--------------7-8-9---|
|-------------------6s7-------------|------9-7h9---------7--8-9---------|
|-----------------------------------|-----------------------------------|


  W
  S S S S S S S S S S S S S S a S S
|-5-----4-----------------------------|
|---5-----5---5-----------------------|
|-----6-----6---6-----------6-----9---|
|-----------------7-----6h7---7s9-----|
|-------------------6s7---------------|
|-------------------------------------|


  Gtrs I, II
              ~~~~~~
  S S S S S S E +S  S S S S S S S    S S S S S S S S S S S S S S a S S
|----------------------------------|-5-----4----------------------------|
|----------------------------------|---5-----5---5----------------------|
|-8-----------7-(7)----------------|-----6-----6---6-----------6-----9--|
|---9-------7-------------9-8-7----|-----------------7-----6h7---7s9----|
|-----9-7h9---------7-8-9-------9\-|-------------------6s7--------------|
|----------------------------------|------------------------------------|


              ~~~~~~PM----------|
  S S S S S S E +S  S S S S S S S   S S S S S S S S S S S S S S a S S
|---------------------------------|-5-----4---------------------------|
|---------------------------------|---5-----5---5---------------------|
|-8-----------7-(7)-------------7-|-----6-----6---6-----------6-----9-|
|---9-------7-------------7-8-9---|-----------------7-----6h7---7s9---|
|-----9-7h9---------7-8-9---------|-------------------6s7-------------|
|---------------------------------|-----------------------------------|


              ~~~~~~
  S S S S S S E +S  S S S S S S S
|----------------------------------|
|----------------------------------|
|-8-----------7-(7)----------------|
|---9-------7-------------9-8-7----|
|-----9-7h9---------7-8-9-------9\-|
|----------------------------------|


 1st Verse
  F#5                         A   F#5               B5   G5
                                 15/16
    PM--|   PM--|                   PM--|   PM----|    PM
  S S S S S S S S S S S S S S E   S S S S S S S S S E. S E
|-------------------------------|--------------------------|
|-----------------------------2-|--------------------------|
|-----------------------------2-|-------------------4------|
|-----------------4-3-2---2h4---|-------------------4------|
|-4-------4-------------4-------|-4-------4-------4-2----5-|
|-2-2-2-2-2-2-2-2---------------|-2-2-2-2-2-2-2-2-2----3-3-|


  F#5                               F#5                       G5
 4/4
    PM--|   PM--|       PM            PM--|   PM------------|
  S S S S S S S S S S S S S S S S   S S S S E S S S S S S S S E
|---------------------------------|-----------------------------|
|---------------------------------|-----------------------------|
|---------------------------------|-----------------------------|
|-----------------4-3-2---4-3-2---|-----------------------------|
|-4-------4-------------4-------4-|-4-------4-2-0-2-3-2-0-2-0-5-|
|-2-2-2-2-2-2-2-2-----------------|-2-2-2-2-2-----------------3-|


  F#5                         A   F#5               B5   G5
                                 15/16
    PM--|   PM--|                   PM--|   PM----|    PM
  S S S S S S S S S S S S S S E   S S S S S S S S S E. S E
|-------------------------------|--------------------------|
|-----------------------------2-|--------------------------|
|-------------------------2h4-2-|-------------------4------|
|-----------------4-3-2---2h4---|-------------------4------|
|-4-------4-------------4-------|-4-------4-------4-2----5-|
|-2-2-2-2-2-2-2-2---------------|-2-2-2-2-2-2-2-2-2----3-3-|


  F#5                               F#5                       G5
 4/4
    PM--|   PM--|       PM      PM    PM--|   PM------------|
  S S S S S S S S S S S S S S S S   S S S S E S S S S S S S S E
|---------------------------------|-----------------------------|
|---------------------------------|-----------------------------|
|-------------------------4-------|-----------------------------|
|-----------------4-3-2---4-3-2---|-----------------------------|
|-4-------4-------------4-------4-|-4-------4-2-0-2-3-2-0-2-0-5-|
|-2-2-2-2-2-2-2-2-----------------|-2-2-2-2-2-----------------3-|


  F#5                         A   F#5               B5   G5
                                 15/16
    PM--|   PM--|                   PM--|   PM----|    PM
  S S S S S S S S S S S S S S E   S S S S S S S S S E. S E
|-------------------------------|--------------------------|
|-----------------------------2-|--------------------------|
|-------------------------2h4-2-|-------------------4------|
|-----------------4-3-2---2h4---|-------------------4------|
|-4-------4-------------4-------|-4-------4-------4-2----5-|
|-2-2-2-2-2-2-2-2---------------|-2-2-2-2-2-2-2-2-2----3-3-|


  F#5                               F#5                       G5
 4/4
    PM--|   PM--|       PM      PM    PM--|   PM------------|
  S S S S S S S S S S S S S S S S   S S S S E S S S S S S S S E
|---------------------------------|-----------------------------||
|---------------------------------|-----------------------------||
|-------------------------4-------|-----------------------------||
|-----------------4-3-2---4-3-2---|-----------------------------||
|-4-------4-------------4-------4-|-4-------4-2-0-2-3-2-0-2-0-5-||
|-2-2-2-2-2-2-2-2-----------------|-2-2-2-2-2-----------------3-||


    E5F#5     E5F#5     E5G5    E5F#5       F#5
                                              PM|   PM|
    S S S S E S S S S E e E  3x S S S S S S e S S S S S E  +S
||---------------------------||--------------------------------|
||o-------------------------o||--------------------------------|
||---------------------------||--------------------------------|
||---------------------------||-------------------4-----2/-(2)-|
||o-2s4-4-4---2s4-4-4---2-5-o||-2s4-4-4---0-4---1-----1--------|
||--0h2-2-2---0h2-2-2---0-3--||-0h2-2-2-----2-2-----2----------|


    F#5         E5  F#5         E5
   4/4
    Gtr II
    q       E   E   q       E   E
    |           |   |           |
    /           /   /           /

    Gtr I
      PM|   PM|   PM  PM|   PM|   PM
    S S S S S S S S S S S S S S S S
||--5-----4-----7---5-----4-----7----||
||o---5-----5---------5-----5-------o||
||------6-----6---6-----6-----6---6--||
||-----------------------------------||
||o---------------------------------o||
||-----------------------------------||


  F#5IX
  W                                   +H             +S  Q.           S
  |                                    |              |
  /                                    /              /

                                                         Gtrs I, II
                                                   ~~~~~~PM-----------|
  S S S S S S S S S S S S S S a S S    S S S S S S E +S  S  S S S S S S
|-5-----4---------------------------|------------------------------------|
|---5-----5---5---------------------|------------------------------------|
|-----6-----6---6-----------6-----9-|--8-----------7-(7)--------------7--|
|-----------------7-----6h7---7s9---|----9-------7--------------7-8-9----|
|-------------------6s7-------------|------9-7h9---------7--8-9----------|
|-----------------------------------|------------------------------------|


                                                  ~~~~~~
  S S S S S S S S S S S S S S a S S   S S S S S S E +S  S S S S S S S
|-5-----4---------------------------|-----------------------------------|
|---5-----5---5---------------------|-----------------------------------|
|-----6-----6---6-----------6-----9-|-8-----------7-(7)-----------------|
|-----------------7-----6h7---7s9---|---9-------7-------------9-8-7-----|
|-------------------6s7-------------|-----9-7h9---------7-8-9-------9\--|
|-----------------------------------|-----------------------------------|


 2nd Verse
  F#5                         A   F#5               B5   G5
                                 15/16
    PM--|   PM--|                   PM--|   PM----|    PM
  S S S S S S S S S S S S S S E   S S S S S S S S S E. S E
|-------------------------------|--------------------------|
|-----------------------------2-|--------------------------|
|-----------------------------2-|-------------------4------|
|-----------------4-3-2---2h4---|-------------------4------|
|-4-------4-------------4-------|-4-------4-------4-2----5-|
|-2-2-2-2-2-2-2-2---------------|-2-2-2-2-2-2-2-2-2----3-3-|


  F#5                               F#5                       G5
 4/4
    PM--|   PM--|       PM            PM--|   PM------------|
  S S S S S S S S S S S S S S S S   S S S S E S S S S S S S S E
|---------------------------------|-----------------------------|
|---------------------------------|-----------------------------|
|---------------------------------|-----------------------------|
|-----------------4-3-2---4-3-2---|-----------------------------|
|-4-------4-------------4-------4-|-4-------4-2-0-2-3-2-0-2-0-5-|
|-2-2-2-2-2-2-2-2-----------------|-2-2-2-2-2-----------------3-|


  F#5                         A   F#5               B5   G5
                                 15/16
    PM--|   PM--|                   PM--|   PM----|    PM
  S S S S S S S S S S S S S S E   S S S S S S S S S E. S E
|-------------------------------|--------------------------|
|-----------------------------2-|--------------------------|
|-------------------------2h4-2-|-------------------4------|
|-----------------4-3-2---2h4---|-------------------4------|
|-4-------4-------------4-------|-4-------4-------4-2----5-|
|-2-2-2-2-2-2-2-2---------------|-2-2-2-2-2-2-2-2-2----3-3-|


  F#5                               F#5                       G5
 4/4
    PM--|   PM--|       PM      PM    PM--|   PM------------|
  S S S S S S S S S S S S S S S S   S S S S E S S S S S S S S E
|---------------------------------|-----------------------------|
|---------------------------------|-----------------------------|
|-------------------------4-------|-----------------------------|
|-----------------4-3-2---4-3-2---|-----------------------------|
|-4-------4-------------4-------4-|-4-------4-2-0-2-3-2-0-2-0-5-|
|-2-2-2-2-2-2-2-2-----------------|-2-2-2-2-2-----------------3-|


  F#5                         A   F#5               B5   G5
                                 15/16
    PM--|   PM--|                   PM--|   PM----|    PM
  S S S S S S S S S S S S S S E   S S S S S S S S S E. S E
|-------------------------------|--------------------------|
|-----------------------------2-|--------------------------|
|-------------------------2h4-2-|-------------------4------|
|-----------------4-3-2---2h4---|-------------------4------|
|-4-------4-------------4-------|-4-------4-------4-2----5-|
|-2-2-2-2-2-2-2-2---------------|-2-2-2-2-2-2-2-2-2----3-3-|


  F#5                               F#5                       G5
 4/4
    PM--|   PM--|       PM      PM    PM--|   PM------------|
  S S S S S S S S S S S S S S S S   S S S S E S S S S S S S S E
|---------------------------------|-----------------------------||
|---------------------------------|-----------------------------||
|-------------------------4-------|-----------------------------||
|-----------------4-3-2---4-3-2---|-----------------------------||
|-4-------4-------------4-------4-|-4-------4-2-0-2-3-2-0-2-0-5-||
|-2-2-2-2-2-2-2-2-----------------|-2-2-2-2-2-----------------3-||


    E5F#5     E5F#5     E5G5    E5F#5
                                              PM|   PM| ~~
    S S S S E S S S S E e E  3x S S S S S S e S S S S S E.
||---------------------------||----------------------------||
||o-------------------------o||----------------------------||
||---------------------------||----------------------------||
||---------------------------||-------------------4-----2--||
||o-2s4-4-4---2s4-4-4---2-5-o||-2s4-4-4---0-4---1-----1----||
||--0h2-2-2---0h2-2-2---0-3--||-0h2-2-2-----2-2-----2------||


  Gtr I         Gtrs I, II
  PM|   PM|                             PM|   PM|
  S S S S S S a S S S S S S S S T T S   S S S S S S S S S S S S S S T T S
|-------------------------------------|-----------------------------------|
|-------------------------------------|-----------------------------------|
|-------------------------------------|-----------------------------------|
|-----4-----2-------------------------|-----6-----4-----------------------|
|---1-----1---1s2-3-4---3---2---0h2p0-|---3-----3---4-5-6---5---4---3h4p3-|
|-2-----2-------------5---4---3-------|-4-----4-----------7---6---5-------|


  PM|   PM|   PM|   PM|   PM|       PM|   PM|         PM----------|
  S S S S S S S S S S S S S S S S   S S S S S S S S S S S S S S S S
|---------------------------------|----------------------------------||
|---------------------------------|----------------------------------||
|---------------------------------|----------------------------------||
|-----7-----4-----------4---------|-----9-----7-----6----------------||
|---4-----4-----4-7---4-----4-7-5-|---6-----6-----6-----5---4---3----||
|-5-----5-----5-----5-----5-------|-7-----7-----7-----7---6---6---5--||


 Gtr. Solo 1
                            F#F5
  Gtr III
        ~~~~~~
  S S S S +E    S S S S S S S S  S S
|-----------------------5-9p8-5------|
|-------------------7-9----------9-7-|
|-4s6s7-6-(6)---5s6------------------|
|------------------------------------|
|------------------------------------|
|------------------------------------|
|
| Gtrs I, II
| PM|   PM|     PM|   PM|
| S S S S  S  S S S S S S S S E.
|------------------------------------|
|------------------------------------|
|------------------------------------|
|-----4-------2-----4-----2----------|
|---4------4------4-----4---4-3------|
|-2-----2-------2-----2-----2-1------|


                               E5    E5  D#5
                    ~~~~~~~~~~~~~~~
  S S S S +S  a S S S    +E    +S  S T T T T S S
|------------------------------------------------|
|------------------------------------------------|
|-6s5--------------------------------------------|
|-----7s6-(6)h7s9-7s6b7==(6)r==(6)-6-7p6h7p6-----|
|--------------------------------------------9-7-|
|------------------------------------------------|
|
| PM|   PM|       PM|        PM
| S S S S  S    S S S     S  S  S  S S   E.
|------------------------------------------------|
|------------------------------------------------|
|------------------------------------9---8-------|
|-----2---------0---------2-----9--9-9---8-------|
|---2------2--------2-----------7--7-7---6-------|
|-0-----0---------0----------0--0--0-------------|


                                   A5
  ~           ~~~~~~~~           ~~
  Q       S S E   +S    S  S  S  Q
|-------------------------------------|
|-------------------------------------|
|-------------------------14-16-------|
|---------7-9---------/16-------16----|
|-9-----------9---(9)-----------------|
|-------------------------------------|
|
| PM|   PM|   PM|       PM|      PM
| S S S S S S S S  S    S  S  S  S E.
|-------------------------------------|
|-------------------------------------|
|-----7-----5------7----------5----2--|
|---7-----7-----7----------7-------2--|
|-5-----5-----5---------5--------5-0--|
|-------------------------------------|


                                      B5        C#5           C#5  G5
                                                  ~~~~~~~~~~~~~~~~~
   T  T  s  a     +S   S a  S     +S   s  S      +E.      +S   +E      +S    S
|-14---------------------------------------------------------------------------|
|----17p14-------------------------------16b18==(16)-----(16)-(16)----(16)r\-2-|
|----------16b17r(16)-14---16b17r(16)-14---------------------------------------|
|------------------------x-----------------------------------------------------|
|------------------------------------------------------------------------------|
|------------------------------------------------------------------------------|
|
|  PM---|              PM--|
|  S     S         S   S    S      S   S  S       S  S S   S    S  E.
|------------------------------------------------------------------------------|
|------------------------------------------------------------------------------|
|------------------4---------------2-------------------6--------6--------------|
|--------4------------------4----------4--4/------6--6----------6--5-----------|
|--2-------------------2---------------2--2/------4--------4----4--5-----------|
|------------------------------------------------------------------3-----------|


                                  F#5F5
  S S S  S S S S T T T T S   S  S  S  S   S  S
|-5-2---/9p6-----9p5-9p5---/14--------------12-|
|-----2------7-----------7-----14--------------|
|--------------6------------------14-----------|
|------------------------------------16--14----|
|----------------------------------------------|
|----------------------------------------------|
|
| PM|    PM|   PM|       PM|
| S S S  S S S S S   S   S   S  S  S  E.
|----------------------------------------------|
|----------------------------------------------|
|----------------------------------------------|
|-----4------2-------4----------2--------------|
|---4------4-----4-----------4-----4--3--------|
|-2------2-----2---------2---------2--1--------|


                         E5   E5  D#5
   S  S  S S S S S S S S  S S S a T T S S
|----------------------8s10-7--------------|
|-12--------------------------8p7h8p7------|
|----13----------5-7-4----------------9-8--|
|-------14s9-------------------------------|
|------------7-5---------------------------|
|------------------------------------------|
|
|  PM|     PM|   PM|   PM
|  S  S  S S S S S S S S  S S S   E.
|------------------------------------------|
|------------------------------------------|
|-----------------------------9---8--------|
|--------2-----0-----2----9-9-9---8--------|
|-----2------2-----2------7-7-7---6--------|
|--0-------0-----0-----0--0-0--------------|


                                                A5
                        |-------6-------|  |--------6--------|
  S   S  S  S  S  S S S S S   S S  S    S  S  S     S  S  S  S
|---/14----10-------------------7h10---14s17p14----------------|
|-------12-------12---7-------7--------------------15----------|
|-7-----------11----7-----7---------------------------14s11----|
|-----------------------9-----------------------------------12-|
|--------------------------------------------------------------|
|--------------------------------------------------------------|
|
| PM|       PM|     PM|     PM--|          PM
| S   S  S  S  S  S S S S   S   S    S     S    E.
|--------------------------------------------------------------|
|--------------------------------------------------------------|
|--------7--------5-----7------------5----------2--------------|
|-----7--------7------7---------7---------------2--------------|
|-5---------5-------5-------5--------------5----0--------------|
|--------------------------------------------------------------|


                                    B5        C#5                 C#5   G5
                                       ~~~~~~~~~~~~~
               |---3---|                                |---3---|
   E        a  S  S    S  S     +E     S       +S    S  S  S    S  E        +S   S
|--------------------------------------------------------------13-17b19r===(17)-16--|
|------------------------12b14r(12)---12pb14==(12)r----12-15------------------------|
|-11b14r==(11)--------11----------------------------13------------------------------|
|--------------9-12-----------------------------------------------------------------|
|-----------------------------------------------------------------------------------|
|-----------------------------------------------------------------------------------|
|
|  PM---|           PM---|
|  S    S      S    S     S      S  S  S        S    S  S    S     S    E.
|-----------------------------------------------------------------------------------|
|-----------------------------------------------------------------------------------|
|--------------4-----------------2----------------------6----------6----------------|
|-------4-----------------4---------4--4/-------6----6-------------6----5-----------|
|--2----------------2---------------2--2/-------4------------4-----4----5-----------|
|-----------------------------------------------------------------------3-----------|


                               F#5  F5
   ~~~~~~~~~~~~~~~~~~~~~~~~~~~~~~~~~~~~~~~~~~
                                 |-------3-------|
   H.                           +E       a    e  e
|-16b17========================(16)----(16)r-17-16-|
|--------------------------------------------------|
|--------------------------------------------------|
|--------------------------------------------------|
|--------------------------------------------------|
|--------------------------------------------------|
|
|  PM----|   PM|   PM|   PM|
|  S     S S S S S S S S S S S   S  E.
|--------------------------------------------------|
|--------------------------------------------------|
|--------------------------------------------------|
|----------4-----2-----4-----2---------------------|
|--------4-----4-----4-----4-----4--3--------------|
|--2---------2-----2-----2-------2--1--------------|


                                                 E5             E5   D#5
                                     ~~~~~~~~~~~~
   |---3---|
   S  S    S  E         +S   +S   S  S  +S   +E    a a a  S      +Q
|-14-16------16pb17====(16)r(16)-16-16-(16)-(16)---------19b21==(19)-----|
|---------15-------------------------------------------x-----------------|
|----------------------------------------------------x-------------------|
|--------------------------------------------------x---------------------|
|------------------------------------------------------------------------|
|------------------------------------------------------------------------|
|
|  PM---|            PM|          PM|         PM
|  S    S     S      S   S    S   S  S   S    S  S        S       S  E.
|------------------------------------------------------------------------|
|------------------------------------------------------------------------|
|-----------------------------------------------------------------9--8---|
|-------------2---------------0----------2-------9--------9-------9--8---|
|-------2----------------2-----------2-----------7--------7-------7--6---|
|--0-----------------0------------0-----------0--0--------0--------------|


                                                    A5
                                             ~~~~~~~
   +E..       +T   Q            +S   +S   S  S  +E      S  S
|-(19)r======(19)-18b20========(18)r(18)---------------------|
|----------------------------------------19-19-(19)----17h19-|
|------------------------------------------------------------|
|------------------------------------------------------------|
|------------------------------------------------------------|
|------------------------------------------------------------|
|
|   PM-|   PM-----|        PM|        PM-|       PM
|   S  S S S       S     S S S   S    S   S  S   S  E.
|------------------------------------------------------------|
|------------------------------------------------------------|
|--------7---------------5-------7-----------5------2--------|
|------7-----------7---------7------------7---------2--------|
|---5------5---------------5----------5----------5--0--------|
|------------------------------------------------------------|

[ Tab from: http://www.guitaretab.com/m/megadeth/11738.html ]
                                                                         C#5   G5
                                                                                    ~~~~~~
                |---3---|  |---3---|
   S.      +T   S  S    S  S  S    S  T  T  T   T  T  S    T  T  T  T  T  T  T  S   E
|------------------------------------------------------------------------------------------|
|-19b22r==(19)p17h19p==17----17h==19-16h17p16-----16-17---15-16s14----14-------------------|
|-------------------------18-------------------18------------------17----17p16-14--16b18===|
|------------------------------------------------------------------------------------------|
|------------------------------------------------------------------------------------------|
|------------------------------------------------------------------------------------------|
|
|  PM---|            PM---|
|  S    S       S    S     S    S     S     S      S    S     S     S     S     E.
|------------------------------------------------------------------------------------------|
|------------------------------------------------------------------------------------------|
|---------------4---------------2-----------------------------6-----------6----------------|
|-------4------------------4----------4-----4/-----6----6-----------------6-----5----------|
|--2-----------------2----------------2-----2/-----4----------------4-----4-----5----------|
|-------------------------------------------------------------------------------3----------|


                                                              F#5  F5
    ~~~~~
   +S    E        +S    S  E        +S    S  S  S  a      +S   +S   S  S  S
|----------------------14----------------14---------------------------------|
|-------------------------17b19====(17)r----17-14---------------------------|
|-(16)r-16b18====(16)r----------------------------16pb17r(16)-(16)p14h16p14-|
|---------------------------------------------------------------------------|
|---------------------------------------------------------------------------|
|---------------------------------------------------------------------------|
|
|   PM--|          PM--|         PM|         PM|
|   S    S     S   S    S  S     S   S    S  S  S          S    S   E.
|---------------------------------------------------------------------------|
|---------------------------------------------------------------------------|
|---------------------------------------------------------------------------|
|--------------4-----------2--------------4----------------2----------------|
|--------4--------------4------------4----------4---------------4---3-------|
|---2--------------2-------------2-----------2------------------2---1-------|


                                                      E5    E5                  D#5
   S       a    s  a  T  T  S  s  s  a  T  T  S  S  S  S  S  S       a    a      +S   S a  S
|-17b19==(17)r-17-14h17p14----14--------------------------------------------------------------|
|--------------------------17----17-14h17p14----14--------------------------------------------|
|--------------------------------------------17----17p16-14-16b18==(16)r-16pb17r(16)-14---16--|
|---------------------------------------------------------------------------------------x-----|
|---------------------------------------------------------------------------------------------|
|---------------------------------------------------------------------------------------------|
|
|  PM----------|            PM|         PM---|      PM
|  S            S     S     S  S  S     S     S  S  S  S  S  S                    E.
|---------------------------------------------------------------------------------------------|
|---------------------------------------------------------------------------------------------|
|------------------------------------------------------------9--------------------8-----------|
|---------------------2-----------0--------------2-----9--9--9--------------------8-----------|
|---------------2--------------2--------------2--------7--7--7--------------------6-----------|
|--0------------------------0-----------0-----------0--0--0-----------------------------------|


                                                   A5
   ~~
   Q        S  S  S  S      +S       +S    S  S  S  S   S  S
|---------------------------------------------------------14-|
|--------------------------------------------------14--17----|
|-14-----------------------------------------14-16-----------|
|----------16-14----15pb16r(15)b16==(15)rs16-----------------|
|----------------16------------------------------------------|
|------------------------------------------------------------|
|
|  PM|   PM|      PM|                 PM--|      PM
|  S S S S  S  S  S  S       S        S    S  S  S  E.
|------------------------------------------------------------|
|------------------------------------------------------------|
|------7-------5-------------7----------------5-----2--------|
|----7------7--------7---------------------7--------2--------|
|--5-----5--------5-------------------5----------5--0--------|
|------------------------------------------------------------|


                                      B5           C#5                   C#5G5
                                                    |--------6---------|
   T  T  T  T  T  T  a  T  T  S  T  T  T  T  T   T  S  S    S  S  S    S  S  E.
|-16h19p16p14----14----16----16----14-19p14-----14-19p16---------------------------||
|-------------15----14----14----15----------15-------------18---------------17-----||
|-------------------------------------------------------------19-16------14-16b18==||
|---------------------------------------------------------------------18-----------||
|----------------------------------------------------------------------------------||
|----------------------------------------------------------------------------------||
|
|  PM---|               PM---|
|  S     S     S        S     S  S     S     S      S    S     S    S     S  E.
|----------------------------------------------------------------------------------||
|----------------------------------------------------------------------------------||
|--------------4-----------------2-----------------------------6----------6--------||
|--------4--------------------4--------4-----4/-----6----6----------------6--5-----||
|--2--------------------2--------------2-----2/-----4---------------4-----4--5-----||
|----------------------------------------------------------------------------3-----||


 Gtr.Solo II
  F#5                                                                     A
  Gtr IV
                                    |------3-------|       |---3---|
    E.         +S   E.         +S   E         a    S       S  S    S  E.     +S
|--19pb21r====(19)-19pb21r====(19)-19b21====(19)r-19b21===19-19---19-19r====(19)-|
|-(17)--------------------------------------------19pb21==19-19---19-19r====(19)-|
|-(16)r--------------------------------------------------------------------------|
|--------------------------------------------------------------------------------|
|--------------------------------------------------------------------------------|
|--------------------------------------------------------------------------------|
|  +E       E       Q               H
|
| Gtrs I, II
|         PM--|           PM--|
|   S     S S   S   S     S S   S   S     S                S    S     S S E
|--------------------------------------------------------------------------------|
|-------------------------------------------------------------------------2------|
|-------------------------------------------------------------------------2------|
|-----------------------------------4-----3----------------2----------2h4--------|
|---4---------------4-------------------------------------------4----------------|
|---2-----2-2---2---2-----2-2---2------------------------------------------------|


  F#5
         |---3---|                 |----------6----------|        |---3---|
   S  S  S  S    S  S  S  S  T  T  S  S    S  a  S  S    S  S  S  S  S    S
|-19-17-17p14---14-14----14----14-14------------------------------------------|
|-19------------------17----17-------17p==14-14h17p14---14--------------------|
|----------------------------------------------------------17-16-14-16---14---|
|-----------------------------------------------------------------------------|
|-----------------------------------------------------------------------------|
|-----------------------------------------------------------------------------|
|
|     PM------|        PM---|                         PM
|  S  S  S    S     S  S  S  S     S    S        S    S     S  S  S    S
|-----------------------------------------------------------------------------|
|-----------------------------------------------------------------------------|
|-----------------------------------------------------------------------------|
|----------------------------------4----3--------2----------4--3--2-----------|
|--4----------------4---------------------------------4----------------4------|
|--2--2--2----2-----2--2--2--2------------------------------------------------|


  F#5                                                                  A
   E.         +S    S  S  S  S  S      +S   +S       +S   +S       +S   +E
|---------------------------------------------------------------------------|
|-14---------(14)--------------16b17==(16)r(16)b17==(16)r-------------------|
|-14b15======(14)r-------------16b17==(16)r(16)b17==(16)r(16)b17==(16)r(16)-|
|------------------16-14----------------------------------------------------|
|------------------------16-14----------------------------------------------|
|---------------------------------------------------------------------------|
|
|        PM--|         PM---|
|  S     S S   S    S  S  S  S  S       S    S        S    S        S    E
|---------------------------------------------------------------------------|
|------------------------------------------------------------------------2--|
|------------------------------------------------------------------------2--|
|-------------------------------4-------3----2-------------2h=======4-------|
|--4----------------4---------------------------------4---------------------|
|--2-----2-2---2----2--2--2--2----------------------------------------------|


     F#5                              B5                  G5
 15/16
                                              ~~~~~~~~~~~~
   a  S.    T  S  S  S  T  T  S  S  S  S   S  S      +E      S
|----17----14----------------------------------------------------|
|-17-------14----14-17----------------14--14-17b19==(17)r---17\--|
|-------------17----17p16p14----14-16----------------------------|
|----------------------------16----------------------------------|
|----------------------------------------------------------------|
|----------------------------------------------------------------|
|
|        PM------|      PM---------|                  PM
|     S  S     S  S  S  S     S  S  S  E.             S   E
|----------------------------------------------------------------|
|----------------------------------------------------------------|
|--------------------------------------4-------------------------|
|--------------------------------------4-------------------------|
|-----4--------------4--------------4--2------------------5------|
|-----2--2-----2--2--2--2-----2--2--2-----------------3---3------|


  F#5                                                             A
 4/4
                                  |---------3---------|
  Q           a    E.        +S   E     E     S      +S  S    E     S
|---------------------------------------------------------------------|
|---------------------------------------------------------------------|
|-4b6========(4)r-[4]b6======(4)r-4b6---4b5---4pb5r==(4)-4pb6-4b6r==4-|
|---------------------------------------------------------------------|
|---------------------------------------------------------------------|
|---------------------------------------------------------------------|
|
|      PM--|             PM--|
| S    S S S       S     S S  S   S   S     S      S     S    S   E
|---------------------------------------------------------------------|
|-----------------------------------------------------------------2---|
|-----------------------------------------------------------------2---|
|---------------------------------4---3-----2------------2h===4-------|
|-4----------------4-------------------------------4------------------|
|-2----2-2-2-------2-----2-2--2---------------------------------------|


  F#5
  |--------6---------| |--3--|     |------6------|
  S    +S    S S S   S S S   S S S S S   S S S   S s s T T S
|------------------------------------------------------------|
|------------------------------------------------------------|
|-4pb5r(4)---2-----------------2-----------------------------|
|--------------4-0---4-4-3p==2---3-2h3p==2-2-----4-----------|
|--------------------------------------------4-----4-5-2p0-2-|
|------------------------------------------------------------|
|
|          PM------|       PM----|             PM
| S        S   S   S   S   S   S S S   S   S   S   S S S   S
|------------------------------------------------------------|
|------------------------------------------------------------|
|------------------------------------------------------------|
|----------------------------------4---3---2-------4-3-2-----|
|-4--------------------4-----------------------4-----------4-|
|-2--------2---2---2---2---2---2-2---------------------------|


  F#5
                                              |3|     |-3-|
  T T S T T T T T T T T T T T T T T S S S T T S T T T T T T
|-----------------------------------------------------------|
|-----------------------------------------------------------|
|-------------------------------------2-4-4-2---4p2p0-4p2p0-|
|-----------------------2h3p2---2h3h4---------4-------------|
|-3p0---2h3p2p0-0h2h3h4-------4-----------------------------|
|-----2-----------------------------------------------------|
|
|     PM----|       PM------|           PM            PM
| S   S S   S   S   S   S   S   S   S S S S   S   S   S
|-----------------------------------------------------------|
|-----------------------------------------------------------|
|-----------------------------------------4-----------------|
|-------------------------------4---3-2---4---3---2---------|
|-4-------------4-----------------------4-------------4-----|
|-2---2-2---2---2---2---2---2-------------------------------|


  F#5                                                    G5
                        |----5----|
  S T T T T T T T T T T T T T   T T S T T T T S    +E    +E
|--------------------------------------------------------------|
|--------------------------------------------------------------|
|-4-2-4-2-0-4-2-0-4-2-2-4-2-0---4-2-0-4-2-4p0-4b6==(4)r==(4)---|
|--------------------------------------------------------------|
|--------------------------------------------------------------|
|--------------------------------------------------------------|
|
|   PM------|           PM-----------------------------|
| S S   S   S   E       S     S     S S   S   S     S  S  E
|--------------------------------------------------------------|
|--------------------------------------------------------------|
|--------------------------------------------------------------|
|--------------------------------------------------------------|
|-4-------------4-------2-----0-----2-3---2---0-----2--0--5----|
|-2-2---2---2---2-----------------------------------------3----|


  F#5                              A
 4/4
  E   +S  S E   S S S S S  S  S  S  S  S
|----------------------------------------|
|----------------------------------------|
|----------------------------------------|
|----------------------------------------|
|----------------------------------------|
|-2---(2)s4-5s==6s7-7s8s9s10-11s12s13s14-|
|
|   PM----|   PM--|
| S S  S  S S S S S S S S  S  S  S  E
|----------------------------------------|
|-----------------------------------2----|
|-----------------------------------2----|
|-------------------4-3-2-----2h=4-------|
|-4---------4--------------4-------------|
|-2-2--2--2-2-2-2-2----------------------|


  F#5
   S  S  S  S  S  S  S  S  S  S  S  S  S  S  S a  S
|-------------------------------------14----17---19s==|
|-------------------------------14-17----14----9------|
|----------------------14h16s17-----------------------|
|-------------14h15h16--------------------------------|
|-12-14s15s16-----------------------------------------|
|-----------------------------------------------------|
|
|     PM---|      PM---|            PM
|  S  S  S  S  S  S  S  S  S  S  S  S  S  S  S    S
|-----------------------------------------------------|
|-----------------------------------------------------|
|-----------------------------------------------------|
|--------------------------4--3--2-----4--3--2--------|
|--4-----------4--------------------4-------------4---|
|--2--2--2--2--2--2--2--2-----------------------------|


  F#5                                                           A
                 ~~~~~~~~
                                    |--3--|  |3-|
   E    +S      +S   +E.      S  S  T  T  T  S  E    T  T  T  T  T  T  T  T
|-21---(21)b22r(21)-(21)-----21-19-18h19p18---------------------------------|
|-------------------------------------------20-19---17-19h20-19-17h18p17----|
|------------------------------------------------------------------------19p|
|---------------------------------------------------------------------------|
|---------------------------------------------------------------------------|
|---------------------------------------------------------------------------|
|
|    PM--------|         PM--|
|  S S   S       S    S  S S  S  S  S        S    S  S     S     E
|---------------------------------------------------------------------------|
|----------------------------------------------------------------2----------|
|----------------------------------------------------------------2----------|
|--------------------------------4--3--------2-------2h====4----------------|
|--4------------------4---------------------------4-------------------------|
|--2-2---2-------2----2--2-2--2---------------------------------------------|


  F#5                                                  B5                      G5
 15/16
                                    |------5------|
   S  T  T  T  T  T  T  T  T  T  T  T  T  T    T  T  S  T  T  T  T  T  T  T  T  T  T  S
|------------------------------------------------------------------------------------------|
|------------------------------------------------------------------------------------------|
|-18-16-16-18-18-16p15h16p15---------------------------------------------------------------|
|----------------------------17-17-16-14-16---17p16-14-16p14-------------------------------|
|------------------------------------------------------------17-16-14-13-15-13h14p13-------|
|------------------------------------------------------------------------------------15----|
|
|     PM---------|            PM--------------------|                     PM
|  S  S     S     S     S     S     S       S        S  E.                S     E
|------------------------------------------------------------------------------------------|
|------------------------------------------------------------------------------------------|
|-------------------------------------------------------4----------------------------------|
|-------------------------------------------------------4----------------------------------|
|--4--------------------4----------------------------4--2-----------------------5----------|
|--2--2-----2-----2-----2-----2-----2-------2--------2--------------------3-----3----------|


  F#5                                                                  A
 4/4
   T  T  S  T  T  S  T  T  T  T  T  S.    T  T  S  T  T  T  T  T  T  S  T  S.
|-----------------------------------------------------------------------------|
|-----------------------------------------------------------------------------|
|----------------------------------------------------------------------15h18--|
|-------------------------------14h17-------------------14h17p14h16h17--------|
|----------------13-16p13h15h16----------13h16p13-15h16-----------------------|
|-12h14p12-14s15--------------------------------------------------------------|
|
|        PM------|         PM----------|
|  S     S  S     S  S     S     S     S  S     S  S     S     S     S  E
|-----------------------------------------------------------------------------|
|-----------------------------------------------------------------------2-----|
|-----------------------------------------------------------------------2-----|
|-----------------------------------------4-----3--2-----------2h====4--------|
|--4-----------------4-----------------------------------4--------------------|
|--2-----2--2-----2--2-----2-----2-----2--------------------------------------|


  F#5
                                                |---3---|
   T  T  S  S  T  T  T  T  S  T  S.    T  T  S  S  S    S  T  T  T  T  T  a  S.
|---------------------------------------------------------------------19h20s24----|
|----------------------------17h20---------------------17h20p17h19h20-------------|
|-------------15h18p15h17h18----------15h18p15-17h18------------------------------|
|-14h17p14-17---------------------------------------------------------------------|
|---------------------------------------------------------------------------------|
|---------------------------------------------------------------------------------|
|
|        PM---|            PM-------|                PM
|  S     S  S  S     S     S  S     S  S     S  S    S     S     S     S        S
|---------------------------------------------------------------------------------|
|---------------------------------------------------------------------------------|
|---------------------------------------------------------------------------------|
|--------------------------------------4-----3--2----------4-----3-----2----------|
|--4-----------------4-------------------------------4--------------------------4-|
|--2-----2--2--2-----2-----2--2-----2---------------------------------------------|


  F#5                                                     A
                                   |----3-----|    |----3----|
   Q           E..         T      +E     E    E    E    E    E
|-24b26-------24b26-------24b26==(24)---24---24---24---24---24--|
|---------------------------------------------------------------|
|---------------------------------------------------------------|
|---------------------------------------------------------------|
|---------------------------------------------------------------|
|---------------------------------------------------------------|
|
|       PM--|       PM--|
|  S    S S S  S    S S S          S  S    S    S  S S    E
|---------------------------------------------------------------|
|---------------------------------------------------------2-----|
|---------------------------------------------------------2-----|
|----------------------------------4--3----2-------2h4----------|
|--4-----------4--------------------------------4---------------|
|--2----2-2-2--2----2-2-2---------------------------------------|


  F#5                          G5   E5F#5     E5F#5     E5G5
                  Gtr V
   ~~~            TP      TP
   H              Q       Q         W
|-24r----------------------------||-------------------------|
|--------------------------------||-------------------------|
|--------------------------------||-------------------------|
|-----------------xs======x\-----||-------------------------|
|-----------------xs======x\-----||-------------------------|
|-----------------xs======x\-----||-------------------------|
|
|     PM--|   PM-------------|
|  S  S S S E S S S S S S S  S E    S S S S E S S S S E e E
|--------------------------------||-------------------------|
|--------------------------------||-------------------------|
|--------------------------------||-------------------------|
|--------------------------------||-------------------------|
|--4--------4-2-0-2-3-2-0-2--0-5-||-2s4-4-4---2s4-4-4---2-5-|
|--2--2-2-2-2------------------3-||-0h2-2-2---0h2-2-2---0-3-|


  E5F#5     E5F#5     E5G5  E5F#5     E5F#5     E5G5  E5F#5
  Gtrs I, II                                                        Gtr V
                                                                    TP
  S S S S E S S S S E e E   S S S S E S S S S E e E   S S S S S S E Q.   E
|-------------------------|-------------------------|------------------------|
|-------------------------|-------------------------|------------------------|
|-------------------------|-------------------------|------------------------|
|-------------------------|-------------------------|---------------x\---x/--|
|-2s4-4-4---2s4-4-4---2-5-|-2s4-4-4---2s4-4-4---2-5-|-2s4-4-4---0-4-x\---x/--|
|-0h2-2-2---0h2-2-2---0-3-|-0h2-2-2---0h2-2-2---0-3-|-0h2-2-2-----2-x\---x/--|


  Gtr I
  S S S  S E S  S S  S E e  E     S  S  S  S E S  S  S  S E e  E
|-------------------------------|----------------------------------|
|-------------------------------|----------------------------------|
|-------------------------------|----------------------------------|
|-------------------------------|----------------------------------|
|-7-9--------7--9--------7-10---|-7--9---------7--9---------7-10---|
|-----7--8--------9-10----------|-------7--8---------9-10----------|
|
| Gtr II
| S S S  S E S  S S  S E e  S S   S  S  S  S E S  S  S  S E e  S S
|-------------------------------|----------------------------------|
|-------------------------------|----------------------------------|
|-------------------------------|----------------------------------|
|-7-9--------9-11--------9-12s9-|-9-11---------9-11---------9-12s9-|
|-----9-10--------9-10----------|-------------------11-12----------|
|-------------------------------|------11-12-----------------------|


                                     PM----------|
  S  S  S  S E S  S  S  S E e  E     S S S S S S S S +E   S S E E
|----------------------------------|---------------------------------*|
|----------------------------------|---------------------------------*|
|----------------------------------|---------------------------------*|
|----------------------------------|---------------------------------*|
|-7--9---------7--9---------7-10---|-7-9---9-7---7-9-(9)\---5-4------*|
|-------7--8---------9-10----------|-----9-----9----------0-3-2------*|
|
|                                    PM----------|
| S  S  S  S E S  S  S  S E e  S S   S S S S S S S S +E   S S E E
|----------------------------------|---------------------------------*|
|----------------------------------|---------------------------------*|
|----------------------------------|---------------------------------*|
|-9-11---------9-11---------9-12s9-|---------------------------------*|
|-------------------11-12----------|-7-9---9-7---7-9-(9)\---5-4------*|
|------11-12-----------------------|-----9-----9----------0-3-2------*|



Duration Legend
---------------
W - whole; H - half; Q - quarter; E - 8th; S - 16th; T - 32nd; X - 64th; a - acciaccatura
+ - note tied to previous; . - note dotted; .. - note double dotted
Uncapitalized letters represent notes that are staccato (1/2 duration)
Irregular groupings are notated above the duration line
Duration letters will always appear directly above the note/fret number it represents the
duration for.  Duration letters with no fret number below them represent rests.  Multi-
bar rests are notated in the form Wxn, where n is the number of bars to rest for.  Low
melody durations appear below the staff

Tablature Legend
----------------
 h   - hammer-on
 p   - pull-off
 b   - bend
 pb  - pre-bend
 r   - bend release (if no number after the r, then release immediately)
 /\  - slide into or out of (from/to "nowhere")
 s   - legato slide
 S   - shift slide
 - natural harmonic
[n]  - artificial harmonic
n(n) - tapped harmonic
 ~   - vibrato
 tr  - trill
 T   - tap
 TP  - trem. picking
 PM  - palm muting
\n/  - tremolo bar dip; n = amount to dip
 \n  - tremolo bar down
 n/  - tremolo bar up
/n\  - tremolo bar inverted dip
 =   - hold bend; also acts as connecting device for hammers/pulls
 <> - volume swell (louder/softer)
 x   - on rhythm slash represents muted slash
 o   - on rhythm slash represents single note slash

Misc Legend
-----------
 |  - bar
||  - double bar
||o - repeat start
o|| - repeat end
*|  - double bar (ending)
 :  - bar (freetime)
 $  - Segno
 &  - Coda
Tempo markers -  = BPM(8/16=s8/s16), where s8 = swing 8ths, s16 = swing 16ths

Related for Lucretia tab
Lucretia chords by Megadeth