Song name
# A B C D E F G H I J K L M N O P Q R S T U V W X Y Z

Megadeth - Tornado tab

this is my first tab (so it might suck, deal with it).
the song had a bass tab up and its pretty
much the same thing (as it is in most punk rock).
if you have any questions (i dont know why) email me at johnnyriot9700@aol.com and
check out my band, the trippin' ballz'
society on myspace. so here we go...

main riff
e|----------------------------------|
B|----------------------------------|
G|----------------------------------|
D|----------------------22-2-2-2--3-|
A|---2-2-2-2--33-3-3-3--22-2-2-2--3-|
E|---2-2-2-2--33-3-3-3--------------|

"wanna be pretty"
e|---------------------------------|
B|---------------------------------|
G|---------------------------------|
D|-----------2---------------------|
A|---2---3---2x8-------------------|
E|---2x8-3x8-----------------------|

this might be a little rocky
"get down"
e|---------------------------------|
B|---------------------------------|
G|---------------------------------|
D|----6-8-0-6-8-0--6-8-6-7-6-8-0---|  x2
A|----6-8-0-6-8-0--6-8-6-7-6-8-0---|
E|---------------------------------|

the piano part... on guitar!
e|---------------------------------|
B|---------------------------------|
G|---------------------------------|
D|----2---3---2--------------------| x2
A|--3-2-2-3-3----------------------|
E|--3---2---3----------------------|

im pretty sure this is right
(and if not who cares? half
the tabs on here are wrong)
and if you mess up its ok
casue we all know what makes
good punk rock is messiness
and anger. so have a blast
with this. go show ur friends.
and thank you for putting up
with my pissy attitude. haha.
Tap to rate this tab
# A B C D E F G H I J K L M N O P Q R S T U V W X Y Z