Song name
# A B C D E F G H I J K L M N O P Q R S T U V W X Y Z

Megadeth - The Hardest Part Of Letting Go Sealed With A Kiss tab

Hello.. this is my first tab i've ever submitted, i'm pretty sure its correct,

leave feedback if you dont mind, it's only the guitar riff playing behind the chords,not quite

sure on the chord.. I think I know the chord thats played but I dont want to be wrong :(




E|----------------------------------------------------------------|
B|----------------------------------------------------------------|
G|----------------------------------------------------------------|
D|----------------------------------------------------------------|
A|5~--5-7-8-10-8-7-5--4~------------------------------------------|
E|----------------------------------------------------------------|


E|----------------------------------------------------------------|
B|----------------------------------------------------------------|
G|----------------------------------------------------------------|
D|----------------------------------------------------------------|
A|--5-7-8-10-8-7-5--3~--------------------------------------------|
E|----------------------------------------------------------------|


E|----------------------------------------------------------------|
B|----------------------------------------------------------------|
G|----------------------------------------------------------------|
D|----------------------------------------------------------------|
A|--5-7-8-10-8-7-5--2~--------------------------------------------|
E|----------------------------------------------------------------|

then~

E|-------------------------------------------------------------------|
B|-------------------------------------------------------------------|
G|-------------------------------------------------------------------|
D|----5--------------------------------------------------------------|
A|5-8---8---7-5------------------------------------------------------|
E|-------------------------------------------------------------------|


And just repeat as needed... I hope this is correct.. feedback or corrections appreciated!
Tap to rate this tab
 
# A B C D E F G H I J K L M N O P Q R S T U V W X Y Z