Song name
# A B C D E F G H I J K L M N O P Q R S T U V W X Y Z

Megadeth - This Day We Fight tab

-------------------------------------------------------------------------------
			This Day We Fight! - Megadeth
-------------------------------------------------------------------------------
Tabbed by: Chris Rizzo

Email: chrisrizzo@hotmail.com

Tuning: Standard. I'm pretty sure there is at least one low e flat 
note which I'm not sure how they're producing. See below.

Special Notes: Play FAST! Riffs Only.

Riff 1

I'm not going to lie. I may be m pretty far off on this section. It's 
real hard to hear what's happening with this riff because it's low 
and fast and the notes are flying by. This is a rough approximation 
but maybe a good starting point for someone else's input. Fast trem 
picking required.

e|---------------------------------------------------------------------------|
B|---------------------------------------------------------------------------|
G|---------------------------------------------------------------------------|
D|---------------------------------------------------------------------------|
A|-----------------------2h3p2p0---------------------------------------------|
E|-0-0-2-0-0-3-0-0-2-0-0-----------------------------------------------------|

e|---------------------------------------------------------------------------|
B|---------------------------------------------------------------------------|
G|---------------------------------------------------------------------------|
D|---------------------------------------------------------------------------|
A|-----------------------5--7------------------------------------------------|
E|-0-0-2-0-0-3-0-0-2-0-0-3--5------------------------------------------------|

e|---------------------------------------------------------------------------|
B|---------------------------------------------------------------------------|
G|---------------------------------------------------------------------------|
D|---------------------------------------------------------------------------|
A|-----------------------2h3p2p0---------------------------------------------|
E|-0-0-2-0-0-3-0-0-2-0-0-----------7h8p7---5h7p5--3h5p3--2h3p2---------------|


Riff 1 ends with something like this:

e|---------------------------------------------------------------------------|
B|---------------------------------------------------------------------------|
G|---------------------------------------------------------------------------|
D|-4-----------------5---4---2-----------------------------------------------|
A|-2-trem pick-------3---2---0---5-------------------------------------------|
E|-------------------------------3-------------------------------------------|

Riff 3: 

I'm not sure this is exactly right but it sounds pretty good to my ears. 
This requires very fast tremolo picking.

  x4
e|---------------------------------------------------------------------------|
B|---------------------------------------------------------------------------|
G|---------------------------------------------------------------------------|
D|-0-0-0-0-/7-0-0-7-0-0-7-0-8-8-8-8------------------------------------------|
A|---------------------------------------------------------------------------|
E|---------------------------------------------------------------------------|
 
  x4
e|---------------------------------------------------------------------------|
B|---------------------------------------------------------------------------|
G|-0-0-0-0-/7-0-0-7-0-0-7-0-8-8-8-8------------------------------------------|
D|---------------------------------------------------------------------------|
A|---------------------------------------------------------------------------|
E|---------------------------------------------------------------------------|

Riff 4:

  x3
e|---------------------------------------------------------------------------|
B|---------------------------------------------------------------------------|
G|---------------------------------------------------------------------------|
D|---------------------------------------------------------------------------|
A|-2---------------5---7---8---7---5-----------------------------------------|
E|-0---0-0-0-0-0-0-3---5---6---5---3-----------------------------------------|

  X1
e|---------------------------------------------------------------------------|
B|---------------------------------------------------------------------------|
G|---------------------------------------------------------------------------|
D|---------------------------------------------------------------------------|
A|-5--7--8-------5--7--2-----------------------------------------------------|
E|-3--5--6-------3--5--0-----------------------------------------------------|
                       ^ This open E obviously seems tuned down a half step. 


e|---------------------------------------------------------------------------|
B|---------------------------------------------------------------------------|
G|---------------------------------------------------------------------------|
D|---------------------------------------------------------------------------|
A|---------------------------------------------------------------------------|
E|---------------------------------------------------------------------------|



| /  slide up
| \  slide down
| h  hammer-on
| p  pull-off
| ~  vibrato
| +  harmonic
| x  Mute note
==================================================
Tap to rate this tab
# A B C D E F G H I J K L M N O P Q R S T U V W X Y Z