Song name
# A B C D E F G H I J K L M N O P Q R S T U V W X Y Z

Megadeth - Trust tab

			Trust - Megadeth 	
Tabbed By D Siviour   \m/
Like This Tab? Show your support by Liking the facebook page Apocalypse 


Drums/Keyboard/Bass Intro (Symphony)

Intro (x2)
e|------------------------------------------------------------------------|
B|------------------------------------------------------------------------|
G|------------------------------------------------------------------------|
D|------------------------------------------------------------------------|
A|---7----------7----------7~-----------7----------7---------5------------|
E|-0---8-7~---0---8~---7-0-----8-7~---0---8-7~---0---6~--5-0---0-6-8------|

Verse 1
e|------------------------------------------------------------------------|
B|------------------------------------------------------------------------|
G|------------------------------------------------------------------------|
D|-9--------------5-------------2-----------------------------------------|
A|-7--------------3-------------0-------------3---------------------------|
E|-0--0-0-0-0-0-0---0-0-0-0-0-0---0-0-0-0-0-0-1--0-0-0-0-0-0--------------|
     Lost in a dream		Nothing is what it seems

e|------------------------------------------------------------------------|
B|------------------------------------------------------------------------|
G|------------------------------------------------------------------------|
D|-9--------------5-----4-----2-------------------------------------------|
A|-7--------------3-----2-----0-------------3-----------------------------|
E|-0--0-0-0-0-0-0---0-0---0-0---0-0-0-0-0-0-1--0-0-0-0-0-0----------------|
    Searching my head	        For the words that you said

e|------------------------------------------------------------------------|
B|------------------------------------------------------------------------|
G|------------------------------------------------------------------------|
D|-9--------------5-------------2-----------------------------------------|
A|-7--------------3-------------0-------------3---------------------------|
E|-0--0-0-0-0-0-0---0-0-0-0-0-0---0-0-0-0-0-0-1--0-0-0-0-0-0--------------|
    Tears filled my eyes		       As we said our last goodbyes

e|------------------------------------------------------------------------|
B|------------------------------------------------------------------------|
G|------------------------------------------------------------------------|
D|-9--------------5-----4--7--2-------------------------------------------|
A|-7--------------3-----2--5--0---------------3----3-3-3-3-3--------------|
E|-0--0-0-0-0-0-0---0-0-----------0-0-0-0-0-0-1----1-1-1-1-1-\12----------|
     This sad scene replays               Of you walking away

Chorus 
e|------------------------------------------------------------------------|
B|------------------------------------------------------------------------|
G|------------------------------------------------------------------------|
D|------------------------------------------------------------------------|
A|---7----------7----------7~-----------7----------7---------5------------|
E|-0---8-7~---0---8~---7-0-----8-7~---0---8-7~---0---6~--5-0---0-6-8------|
   My body aches from mistakes        Betrayed       by         lust

e|------------------------------------------------------------------------|
B|------------------------------------------------------------------------|
G|------------------------------------------------------------------------|
D|------------------------------------------------------------------------|
A|---7----------7----------7~-----------7----------7---------5------------|
E|-0---8-7~---0---8~---7-0-----8-7~---0---8-7~---0---6~--5-0---0-6-8------|
   We lied to each other so much     That in nothing we trust

Verse 2
e|------------------------------------------------------------------------|
B|------------------------------------------------------------------------|
G|------------------------------------------------------------------------|
D|-9--------------5-------------2-----------------------------------------|
A|-7--------------3-------------0-------------3---------------------------|
E|-0--0-0-0-0-0-0---0-0-0-0-0-0---0-0-0-0-0-0-1--0-0-0-0-0-0--------------|
   Time and again,		           She repeats let's be friends


e|------------------------------------------------------------------------|
B|------------------------------------------------------------------------|
G|------------------------------------------------------------------------|
D|-9--------------5-----4-----2-------------------------------------------|
A|-7--------------3-----2-----0-------------3-----------------------------|
E|-0--0-0-0-0-0-0---0-0---0-0---0-0-0-0-0-0-1--0-0-0-0-0-0----------------|
   I smile and say yes       Another truth bends, I must confess

e|------------------------------------------------------------------------|
B|------------------------------------------------------------------------|
G|------------------------------------------------------------------------|
D|-9--------------5-------------2-----------------------------------------|
A|-7--------------3-------------0-----------------------------------------|
E|-0--0-0-0-0-0-0---0-0-0-0-0-0---0-0-0-0-0-0-----------------------------|
     I try to let go,   but I know We'll never end 'til we're dust

e|------------------------------------------------------------------------|
B|------------------------------------------------------------------------|
G|------------------------------------------------------------------------|
D|-9--------------5-----4--7--2-------------------------------------------|
A|-7--------------3-----2--5--0---------------3----3-3-3-3-3--------------|
E|-0--0-0-0-0-0-0---0-0-----------0-0-0-0-0-0-1----1-1-1-1-1-\12----------|
	We lied to each other again		But I wish I could trust   
                                                       (If I Could Trust)

Chorus (x2)
e|------------------------------------------------------------------------|
B|------------------------------------------------------------------------|
G|------------------------------------------------------------------------|
D|------------------------------------------------------------------------|
A|---7----------7----------7~-----------7----------7---------5------------|
E|-0---8-7~---0---8~---7-0-----8-7~---0---8-7~---0---6~--5-0---0-6-8------|
   My body aches from mistakes        Betrayed       by         lust
   God Help me Please, On my knees    Betrayed       by         lust
						

e|------------------------------------------------------------------------|
B|------------------------------------------------------------------------|
G|------------------------------------------------------------------------|
D|------------------------------------------------------------------------|
A|---7----------7----------7~-----------7----------7---------5------------|
E|-0---8-7~---0---8~---7-0-----8-7~---0---8-7~---0---6~--5-0---0-6-8------|
   We lied to each other so much     That in nothing we trust
   We lied to each other so much(so much)That in nothing we trust

Acoustic Symphony/Solo
How could this be happening to me,  I'm lying when I say "Trust me" 
I can't believe this is true, Trust hurts
Why does trust equal suffering

e|-0--------0--------0--------2-|
B|-0--------0--------0--------3-|
G|-0--------0--------0--------2-|
D|-2--------2--------2--------0-|
A|-2--------3--------4----------|
E|-0----------------------------|

Guitar 1
e|------------------------------------------------|
B|------------------------------------------------|
G|-9-------9h10-9h10p9-------10-------8---------8-|
D|------10-------------10-------10------10---10---|
A|---12-------------------12-------12------8------|
E|------------------------------------------------|

e|--------------------6----------------|
B|----------8----8-10---6---6----------|
G|-7------7----7----------6---6----6---|
D|------8------------------------8---8-|
A|---10--------------------------------|
E|-------------------------------------|
e|---------0-------------------------------|
B|-------6---6------------8-8/11-11p8------|
G|-----5-------5--------6-------------9----|
D|---7-----------7----5-----------------11-|
A|-0----------------0----------------------|
E|-----------------------------------------|

Guitar 2
e|--------------------------------------|
B|--------------------------------------|
G|-5-----5h7-5h7p5----------5----2/5----|
D|-----7-----------7------7----------7\-|
A|---7---------------7--6-----3---------|
E|--------------------------------------|

e|------------------------------------------|
B|------------------------------------------|
G|----------3\2/3-----------6-5-6-----------|
D|-(7)\5----------5---------------8-------7-|
A|--------5---------5--8------------8-8-7---|
E|------------------------6-----------------|

e|---------------------|
B|-------5-5/8-8p5-----|
G|-----3-----------6---|
D|---2---------------7-|
A|-0-------------------|
E|---------------------|


Acoustic Bridge
e|------------------------------------------------------------------------|
B|------------------------------------------------------------------------|
G|-----------------------0--------0---------------------------------------|
D|-----0--------0------0--------0-------------------------2---------------|
A|---0--------0------1------1-0----------0-0-0--(-0-x22-)-0---------------|
E|-1------1-0------0-----------------3b-----------------------------------|


Guitar Solo
e|---------------------------------------------|
B|-------------11b12~~-----------------12b15~~-|
G|-9--9~--9----------------9--9~--9------------|
D|----------9-----------/9----------9----------|
A|---------------------------------------------|
E|---------------------------------------------|

e|------------------------------------|
B|-------------------16-17b20--(20)~--|
G|---9~-9~~-------16------------------|
D|-9---------9/17---------------------|
A|------------------------------------|
E|------------------------------------|

e|--------------------------|
B|-[17]20r17b20--17b20r17\--|
G|--------------------------|
D|--------------------------|
A|--------------------------|
E|--------------------------|

e|-----------------------------------15-----|
B|--------------------------17-17~~----17---|
G|-2b3--2b3-2b3r2b3~~---/16--------------16-|
D|------------------------------------------|
A|------------------------------------------|
E|------------------------------------------|

e|-18b19--18b19~-{18}-(19)r18p17-15---------|
B|----------------------------------17~~-17-|
G|------------------------------------------|
D|------------------------------------------|
A|------------------------------------------|
E|------------------------------------------|

e|----------15h19p15--15-19-19b22~~~\-|
B|----17h19---------19----------------|
G|-16---------------------------------|
D|------------------------------------|
A|------------------------------------|
E|------------------------------------|

e|-19-22-22b24--22-22b24-22b24-22b24-22b24-22b24-|
B|-----------------------------------------------|
G|-----------------------------------------------|
D|-----------------------------------------------|
A|-----------------------------------------------|
E|-----------------------------------------------|

e|-22-2b24-22b24-22b24-{22}{22}{22}{22}{22}\-|
B|---------------22b23-{22}{22}{22}{22}{22}\-|
G|-------------------------------------------|
D|-------------------------------------------|
A|-------------------------------------------|
E|-------------------------------------------|

e|-----12-11--------11-12-11---------12-14p12--------|
B|-5/-------12p10-12--------12--12h15--------15-12---|
G|----------------------------14------------------14-|
D|---------------------------------------------------|
A|---------------------------------------------------|
E|---------------------------------------------------|

e|------12-14p12---------(15)----------------------|
B|-12h15--------15-12--12----15-12--12-15p12h15p12-|
G|-------------------14-----------14---------------|
D|-------------------------------------------------|
A|-------------------------------------------------|
E|-------------------------------------------------|

e|-----------------------|
B|---12------------------|
G|-14--14p12-------------|
D|----------14-12-14~~~\-|
A|-----------------------|
E|-----------------------|


Chorus (x2)
e|------------------------------------------------------------------------|
B|------------------------------------------------------------------------|
G|------------------------------------------------------------------------|
D|------------------------------------------------------------------------|
A|---7----------7----------7~-----------7----------7---------5------------|
E|-0---8-7~---0---8~---7-0-----8-7~---0---8-7~---0---6~--5-0---0-6-8------|
  My body aches from mistakes        Betrayed       by         lust
  God Help me Please, On my knees    Betrayed       by         lust

e|------------------------------------------------------------------------|
B|------------------------------------------------------------------------|
G|------------------------------------------------------------------------|
D|------------------------------------------------------------------------|
A|---7----------7----------7~-----------7----------7---------5------------|
E|-0---8-7~---0---8~---7-0-----8-7~---0---8-7~---0---6~--5-0---0-6-8------|
   We lied to each other so much     That in nothing we trust
   We lied to each other so much     That in nothing we trust


Chorus (x2) (Includes a Guitar Solo)
e|------------------------------------------------------------------------|
B|------------------------------------------------------------------------|
G|------------------------------------------------------------------------|
D|------------------------------------------------------------------------|
A|---7----------7----------7~-----------7----------7---------5------------|
E|-0---8-7~---0---8~---7-0-----8-7~---0---8-7~---0---6~--5-0---0-6-8------|
   My body aches from mistakes        Betrayed       by         lust      
   God Help me Please, On my knees    Betrayed       by         lust
     


e|------------------------------------------------------------------------|
B|------------------------------------------------------------------------|
G|------------------------------------------------------------------------|
D|------------------------------------------------------------------------|
A|---7----------7----------7~-----------7----------7---------5------------|
E|-0---8-7~---0---8~---7-0-----8-7~---0---8-7~---0---6~--5-0---0-6-8------|
    We lied to each other so much     That in nothing we trust
    We lied to each other so much     Absolutely nothing(we,we) trust


End Song


Guitar Solo during last Chorus
e|-----------------------------|
B|-----------------------------|
G|-11b12--------[11]12r11-9~~~-|
D|-----------------------------|
A|-----------------------------|
E|-----------------------------|

e|----------------------------------------------12--------|
B|--------------12h15-----12h15---------------15--15b17~~-|
G|-14-12---12h14-----12h14-----12h14p12--12-14------------|
D|------14-----------------------------14-----------------|
A|--------------------------------------------------------|
E|--------------------------------------------------------|

e|-----------------------------------------------------|
B|-12-12-15b17r15p12-15b17~~-15p12-15b17r15p12-15b17~~-|
G|-----------------------------------------------------|
D|-----------------------------------------------------|
A|-----------------------------------------------------|
E|-----------------------------------------------------|

e|-17b19r18--[17]19~~~\-|
B|----------------------|
G|----------------------|
D|----------------------|
A|----------------------|
E|----------------------|

e|-19b20--(20)r19--15-17-[17]18r17b18r17b18r17p15-|
B|------------------------------------------------|
G|------------------------------------------------|
D|------------------------------------------------|
A|------------------------------------------------|
E|------------------------------------------------|

e|-17b19~~-(19)r17p15-----------------15------------|
B|--------------------17~~~--17p15-17----17-15-17~~-|
G|--------------------------------------------------|
D|--------------------------------------------------|
A|--------------------------------------------------|
E|--------------------------------------------------|

e|----------------17-------------------|
B|-17~~--17p15-17----17p15-17~~\-------|
G|--------------------------------/16\-|
D|-------------------------------------|
A|-------------------------------------|
E|-------------------------------------|

e|---------------------------------------------------|
B|-11-------10-----\------------------------12-------|
G|-13b15~~--12b14~~\---9h12p9~~-----12p9----12p9-----|
D|------------------------------12p9----12p9----12p9-|
A|---------------------------------------------------|
E|---------------------------------------------------|

e|-----------------------|
B|-----------------------|
G|----9------------------|
D|-12---12p9-------------|
A|----------12p10--10----|
E|---------------12--12\-|

e|-------------------------------|
B|-------------------------------|
G|-------------------------------|
D|-------------------------------|
A|-------------------------------|
E|-3h5p3h5p3h5p3h5-5-5-5\--------|
Tap to rate this tab
# A B C D E F G H I J K L M N O P Q R S T U V W X Y Z