Song name
# A B C D E F G H I J K L M N O P Q R S T U V W X Y Z

Megapuss - Adam And Steve tab

#----------------------------------PLEASE NOTE---------------------------------#
#This file is the author's own work and represents their interpretation of the #
#song. You may only use this file for private study, scholarship, or research. #
#------------------------------------------------------------------------------##


Artist: Megapuss
Song: Adam & Steve
Tabbed by: Manthony
03.25.09


TUNING: (E A D G B E)



CHORD DIAGRAM


----------------------------------------------------------------

 Am             Bm              Em                                
                                  
 5 7 7 5 5 5    7 9 9 7 7 7     0 2 2 0 0 0    

       
----------------------------------------------------------------




http://www.megapuss.net/
E||--5--5-5-5--7--7-7-7--0--0-0-0--0-0-0--||
B||--5--5-5-5--7--7-7-7--0--0-0-0--0-0-0--||
G||--5--5-5-5--7--7-7-7--0--0-0-0--0-0-0--|| REPEAT x2
D||--7--7-7-5--9--9-9-7--2--2-2-2--2-2-2--||
A||--7--7-7-5--9--9-9-7--2--2-2-2--2-2-2--||
E||--5--5-5----7--7-7----0--0-0-0--0-0-0--||


                            
E||--3p0-----|---------|-0--0-0-0--0-0-0--||
B||------3/5-|-3p0-----|-0--0-0-0--0-0-0--||
G||----------|-----2/4-|-0--0-0-0--0-0-0--|| 
D||----------|---------|-2--2-2-2--2-2-2--||
A||----------|---------|-2--2-2-2--2-2-2--||
E||----------|---------|-0--0-0-0--0-0-0--||

Hard to believe
		That Adam and Steve
				    They never had to leave

E||--3p0-----|---------|-0--0-0-0--0-0-0--||
B||------3/5-|-3p0-----|-0--0-0-0--0-0-0--||
G||----------|-----2/4-|-0--0-0-0--0-0-0--|| 
D||----------|---------|-2--2-2-2--2-2-2--||
A||----------|---------|-2--2-2-2--2-2-2--||
E||----------|---------|-0--0-0-0--0-0-0--||

Hard to explain
		The power exchange
				    In there, looking for some strange

E||--3p0-----|---------|-0--0-0-0--0-0-0--||
B||------3/5-|-3p0-----|-0--0-0-0--0-0-0--||
G||----------|-----2/4-|-0--0-0-0--0-0-0--|| 
D||----------|---------|-2--2-2-2--2-2-2--||
A||----------|---------|-2--2-2-2--2-2-2--||
E||----------|---------|-0--0-0-0--0-0-0--||

Tropical taint
		Magical man
			    So delicious change

E||--3p0-----|---------|-0--0-0-0--0-0-0--||
B||------3/5-|-3p0-----|-0--0-0-0--0-0-0--||
G||----------|-----2/4-|-0--0-0-0--0-0-0--|| 
D||----------|---------|-2--2-2-2--2-2-2--||
A||----------|---------|-2--2-2-2--2-2-2--||
E||----------|---------|-0--0-0-0--0-0-0--||

Father and man
		Mania style
			    What a bowl of fire 



0:32

E||---------|---------|-0--0-0-0--0-0-0--||
B||---------|---------|-0--0-0-0--0-0-0--||
G||---------|---------|-0--0-0-0--0-0-0--|| 
D||---------|---------|-2--2-2-2--2-2-2--||
A||-------2-|-----5-7-|-2--2-2-2--2-2-2--||
E||-0-3-5---|-5-7-----|-0--0-0-0--0-0-0--||



Solo

E||--(14)-12--------(14)-12-----|--(10)-8-------(10)-8-----|-(8)-7---------||
B||----------12-------------12~-|---------8------------8~--|-------8-------||
G||-------------12--------------|-----------9--------------|---------9-----|| 
D||-----------------------------|--------------------------|-----------9~--||
A||-----------------------------|--------------------------|---------------||
E||-----------------------------|--------------------------|---------------||

E||-------------------------------------7-8--||
B||-------------------7----7-8-10--8-10------||
G||---------7-----7-9----9-------------------|| 
D||--7-9-10----10----------------------------||
A||------------------------------------------||
E||------------------------------------------||


E||--(14)-12--------(14)-12-----|--(10)-8-------(10)-8-----|-(8)-7---------||
B||----------12-------------12~-|---------8------------8~--|-------8-------||
G||-------------12--------------|-----------9--------------|---------9-----|| 
D||-----------------------------|--------------------------|-----------9~--||
A||-----------------------------|--------------------------|---------------||
E||-----------------------------|--------------------------|---------------||

E||--------------------------------------------12---||
B||-------------------------------------12-----15^--||
G||-------------------------------------14^---------|| 
D||--7/9-9/10-10/12-12/14-14/16-16/17---------------||
A||-------------------------------------------------||
E||-------------------------------------------------||



*REPEAT AS NECESSARY




#----------------------------------PLEASE NOTE---------------------------------#
#This file is the author's own work and represents their interpretation of the #
#song. You may only use this file for private study, scholarship, or research. #
#------------------------------------------------------------------------------##



http://www.megapuss.net/
Tap to rate this tab
# A B C D E F G H I J K L M N O P Q R S T U V W X Y Z