Song name
# A B C D E F G H I J K L M N O P Q R S T U V W X Y Z

Megapuss - Crop Circle Jerk 94 tab

Help us improve GuitareTab! Take a short survey!
This is definitely one of the best songs on the album.


(Intro/verses)

e|--------------2----------------------2----------|
B|--------------3----------------------3----------|
G|--------------2----------------------4----------|
D|--------0-0------0-4-2-0-------------4----------|
A|--0h2-4------------------4-0-2-2----------------|
E|------------------------------------------------|

(Chorus)
"All my loving..."

e|--5555x5555-555x---2222x2222-222x----|
B|--7777x7777-777x---3333x3333-333x----|
G|--7777x7777-777x---2222x2222-222x----|
D|-------------------------------------|
A|-------------------------------------|
E|-------------------------------------|

(Bridge)

Guitar 1
e|--10-10x---9---9x---7--7x--9--9-----------------|
B|--10-10x--10--10x---8--8x-10-10-----------------|
G|--11-11x--11--11x---9--9x-11-11-----------------|
D|------------------------------------------------|
A|------------------------------------------------|
E|------------------------------------------------|

Guitar 2

e|--14-12-10------10-----14-12-10----10----------10--------|
B|------------12------------------12----12-10--------------|
G|---------------------------------------------------------|
D|---------------------------------------------------------|
A|---------------------------------------------------------|
E|---------------------------------------------------------|

e|--14-12-10------10----|
B|------------12--------|
G|----------------------|
D|----------------------|
A|----------------------|
E|----------------------|


"Won't you take me on babe?"
e|--2x2x2x2-2x2x2x2--|
B|--3x3x3x3-3x3x3x3--|
G|--2x2x2x2-4x4x4x4--|  (Do this part Four times.)
D|----------4x4x4x4--|
A|-------------------|
E|-------------------|


Then at the last verse along with the intro riff, the second
guitar is playing like a lead melody. I don't have that 100% yet,
but I'll update the tab as soon as I can.




Related for Crop Circle Jerk 94 tab