Song name
# A B C D E F G H I J K L M N O P Q R S T U V W X Y Z

Mellowdrone - Orange Marmalade tab

-------------------------------------------------------------------------------
			 ORANGE MARMALADE - Mellowdrone
-------------------------------------------------------------------------------
Tabbed by: Pierre
Email: pierre64@gmail.com

Tuning: Standard (EBGDAe)

Intro & Chorus 
(LET EACH NOTE RING)

e|-----6-------------------------9-----------------------8-------------------|
B|-----8------------------------11----------------------10-------------------|
G|-----7------------------------10-----------------------9-------------------|
D|-----8------------------------11----------------------10-------------------|
A|-----6-------------------------9-----------------------8-------------------|
E|-----X-------------------------X-----------------------X-------------------|

Solo(?) 

e|---------------------------------------------------------------------------|
B|-----------------9---------------------------------------------------------|
G|-----------------9--------------------------11-----------------------------|
D|-----------9-----9--------------------------10-----------------------------|
A|-----7-----------7--------------------10----10-----------------------6-----|
E|-----------------------7----8----9-----------9-----2-----3-----4-----------|

e|---------------------------------------------------------------------------|
B|---------------------------------------------------------------------------|
G|-----5-----------------------5---------------------------------------------|
D|-----6-----------------------6---------------------------------------------|
A|-----6-----6-----------6-----6----------------2-----------2-----------2----|
E|-----4-----------4-----------4----------3-----------4-----------5----------|

e|---------------------------------------------------------------------------|
B|-----------------------------------------------------------------Back------|
G|------------------------------------------------------------------to-------|
D|----------------------------------------------------------------chorus-----|
A|-----------2---------------------------------------------------------------|
E|-----5-----------5-----7-----8----10----12----10-----8-----7---------------|



| /  slide up
| \  slide down
| h  hammer-on
| p  pull-off
| ~  vibrato
| +  harmonic
| x  Mute note
===============================================================================
Tap to rate this tab
 
# A B C D E F G H I J K L M N O P Q R S T U V W X Y Z