Song name
# A B C D E F G H I J K L M N O P Q R S T U V W X Y Z

Mellowdrone - Fuck It Man tab

Verse:

|--3-----3-----------------5-----5-----7-----7------|
|-----2-----2--0-----0--------4-----4-----5-----5---|
|-----------------0-----0---------------------------|
|---------------------------------------------------|
|---------------------------------------------------|
|---------------------------------------------------|

|--3-----3-----------------5-----5-----7-----7----|
|-----2-----2--0-----0--------4-----4-----5-----5-|
|-----------------0-----0-------------------------|
|-------------------------------------------------|
|-------------------------------------------------|
|-------------------------------------------------|

|-----7-----7------10------10------10-|
|--7-----7-----10------10------10-----|
|-------------------------------------|
|-------------------------------------|
|-------------------------------------|
|-------------------------------------|

Chorus: G,D,A,B minor
Tap to rate this tab
 
# A B C D E F G H I J K L M N O P Q R S T U V W X Y Z