Melpo Mene - I Adore You tab

-------------------------------------------------------------------------
                        I Adore You - Melpo Mene
-------------------------------------------------------------------------


Capo 3rd Fret

Verse (x3)
e-|--0-----0--3---0------------0-----------------1------1----0-----1-0--||
b-|-----1------------3--1---------0------0-----------1----1-----3-------||
G-|--0----------------------2---------------2----------------0-----0----||
D-|---------------------------------------------------------------------||
A-|--3----------2---------0---------------------------------------------||
E-|---------------------------------3----------1-------------3-----3----||


Between Verse (x2)
e-|--3--0-----1---0-----------------0-------------1-----1----0-----1-0--||
b-|--------1---------1r0------0h1h3-----3r1r0--------1----1-----3-------||
G-|--0-------------------2--------------------2--------------0-----0----||
D-|---------------------------------------------------------------------||
A-|--3----------2----------0--------------------------------------------||
E-|-----------------------------------3---------1------------3-----3----||


Ending Section
e-|--3----5--3--2-----2--------2--0--------0--------0------------------------||
b-|--0-------------------3-----------3--------1--------3--0---0-1------------||
G-|--0----------------2--------2-----------0--------------0-------2--0--2--0-||
D-|----------------0--------0-------------------------------------0-----0----||
A-|-------------------------------------3--------3---------------------------||
E-|--3----------------------------------------------------3----------------3-||
Tap to rate this tab
 
# A B C D E F G H I J K L M N O P Q R S T U V W X Y Z