Song name
# A B C D E F G H I J K L M N O P Q R S T U V W X Y Z

Melvins - Goose Freight Train tab

little intro bit:

e|-------------------------------------------------------------------|
b|-------------------------------------------------------------------|
g|-------------------------------------------------------------------|
d|-7-4~--9b10--9-7-4-7-4--9b10--9b10--9-7-4--2-4-5--7-7-5-7-4--4-3-2-|
a|-------------------------------------------------------------------|
e|-------------------------------------------------------------------|

no guitar for the section between the intro and the middle


middle part: (chords are played before he says the lyric)


   E
While it's in front of me
   A
Keeps me insane.
   E                  A E
Disguised to take away the feeling the house survives
   A
But all on demand
   E
Disguise thrown over me
   A
Teenage hand


e|-----------------------------------------------------------|
b|-------------------------4---------------------------------|
g|------------5-----4----4--------------5------4---4-3-------|
d|-----4----4-----3----3---------4----4------3---3-----4-3---|
a|---3----3-----2--------------3----3------2---------------4-|
e|-2-------------------------2-------------------------------|


e|-----------------------------------------------------------------|
b|-------------------------4---------------------------------------|
g|------------5-----4----4--------------5------4---4-3-------------|
d|-----4----4-----3----3---------4----4------3---3-----4-3---------|
a|---3----3-----2--------------3----3------2---------------4-3-----|
e|-2-------------------------2---------------------------------4-3-|


then its bass for the rest of the song
Tap to rate this tab
 
# A B C D E F G H I J K L M N O P Q R S T U V W X Y Z