Song name
# A B C D E F G H I J K L M N O P Q R S T U V W X Y Z

Melvins - Honey Bucket tab

                                 Honey Bucket                                   


                                                                         Melvins
Guitar 1
     Q    E  E  E  E  E  E      E  E  E  E  H           Q    E  E  E  E  E  E   
E||-------------------------|------------------------|-------------------------|
B||-------------------------|------------------------|-------------------------|
G||-------------------------|------------------------|-------------------------|
D||-------------------------|------------------------|-------------------------|
A||--0----0--0--1--0--0--0--|------0-----0-----------|--0----0--0--1--0--0--0--|
D||--0----0--0--1--0--0--0--|--12--0-----0-----------|--0----0--0--1--0--0--0--|
 
 
  E  E  E  E  E  E  E  E     E  E  E  E  E  E  E  E   
--------------------------|--------------------------|
--------------------------|--------------------------|
--------------------------|--------------------------|
--------------------------|--------------------------|
-----0-----0-----0--1--1--|--1--0--0--0--1--0--0--0--|
-----0-----0-----0--1--1--|--1--0--0--0--1--0--0--0--|
 
 
  E  E  E  E  E  E  E  E     E  E  E  E  E  E  E  E   
--------------------------|--------------------------|
--------------------------|--------------------------|
--------------------------|--------------------------|
--------------------------|--------------------------|
-----0-----0-----1--1--1--|--1--0--1--1--1--0--0--0--|
-----0-----0-----1--1--1--|--1--0--1--1--1--0--0--0--|
 
 
  E  E  E  E  E  E  E  E     E  E  E  E  E  E  E  E   
--------------------------|--------------------------|
--------------------------|--------------------------|
--------------------------|--------------------------|
--------------------------|--------------------------|
-----0-----0-----0--1--1--|--1--0--0--0--1--0--0--0--|
-----0-----0-----0--1--1--|--1--0--0--0--1--0--0--0--|
 
 
  E  E  E  E  E  E  E  E     E  E  E  E  E  E  E  E   
--------------------------|--------------------------|
--------------------------|--------------------------|
--------------------------|--------------------------|
--------------------------|--------------------------|
-----0-----0-----0--3--3--|--3--0--0--0--1--0--0--0--|
-----0-----0-----0--3--3--|--3--0--0--0--1--0--0--0--|
 
 
  E  E  E  E  E  E  E  E     E  E  E  E  E  E  E  E   
--------------------------|--------------------------|
--------------------------|--------------------------|
--------------------------|--------------------------|
--------------------------|--------------------------|
-----0-----0-----0--1--1--|--1--0--0--0--1--0--0--0--|
-----0-----0-----0--1--1--|--1--0--0--0--1--0--0--0--|
 
 
  E  E  E  E  E  E  E  E     H        Q    E  E     E  E  E  E  E  E  E  E   
--------------------------|----------------------|--------------------------|
--------------------------|----------------------|--------------------------|
--------------------------|----------------------|--------------------------|
--------------------------|----------------------|--------------------------|
-----0-----0-----0--0--0--|--3--------3----0--3--|--L--3--3--3--3--3--3--0--|
-----0-----0-----0--0--0--|--3--------3----0--3--|--L--3--3--3--3--3--3--0--|
 
 
  H        Q    E  E     E  E  E  E  E  E  E  E     E  E  E  E  E  E  E  E   
----------------------|--------------------------|--------------------------|
----------------------|--------------------------|--------------------------|
----------------------|--------------------------|--------------------------|
----------------------|--------------------------|--------------------------|
--4--------4----1--4--|--L--1--4--1--4--1--4--1--|--4--1--4--1--4--1--4--1--|
--4--------4----1--4--|--L--1--4--1--4--1--4--1--|--4--1--4--1--4--1--4--1--|
 
 
  W                   W                   W                 
-------------------|-------------------|-------------------|
-------------------|-------------------|-------------------|
-------------------|-------------------|-------------------|
-------------------|-------------------|-------------------|
--0----------------|--L----------------|--L----------------|
--0----------------|--L----------------|--L----------------|
 
 
  Q    Q    E  E  E  E     E  E  E  E  E  E  E  E     Q    Q    E  E  E  E   
------------------------|--------------------------|------------------------|
------------------------|--------------------------|------------------------|
------------------------|--------------------------|------------------------|
--0----0----0--0--0--1--|-----1--1--1--1--1--1--1--|--5----5----5--5--5--6--|
--0----0----0--0--0--1--|--L--1--1--1--1--1--1--1--|--5----5----5--5--5--6--|
--0----0----0--0--0--1--|--L--1--1--1--1--1--1--1--|--5----5----5--5--5--6--|
 
 
  E  E  E  E  E  E  E  E     E  E  E  E  E  E  E  E     E  E  E  E  H         
--------------------------|--------------------------|-----------------------|
--------------------------|--------------------------|-----------------------|
--------------------------|--------------------------|-----------------------|
-----6--6--6--6--6--6--6--|--8--8--8--8--8--8--8--7--|-----7-----7-----------|
--L--6--6--6--6--6--6--6--|--6--6--6--6--6--6--6--5--|-----5-----5-----------|
--L--6--6--6--6--6--6--6--|--------------------------|-----------------------|
 
 
  Q    E  E  E  E  E  E     E  E  E  E  E  E  E  E     E  E  E  E  E  E  E  E   
-------------------------|--------------------------|--------------------------|
-------------------------|--------------------------|--------------------------|
-------------------------|--------------------------|--------------------------|
-------------------------|--------------------------|--------------------------|
--0----0--0--1--0--0--0--|-----0-----0-----0--1--1--|--1--0--0--0--1--0--0--0--|
--0----0--0--1--0--0--0--|-----0-----0-----0--1--1--|--1--0--0--0--1--0--0--0--|
 
 
  E  E  E  E  E  E  E  E     E  E  E  E  E  E  E  E   
--------------------------|--------------------------|
--------------------------|--------------------------|
--------------------------|--------------------------|
--------------------------|--------------------------|
-----0-----0-----0--3--3--|--3--0--0--0--1--0--0--0--|
-----0-----0-----0--3--3--|--3--0--0--0--1--0--0--0--|
 
 
  E  E  E  E  E  E  E  E     E  E  E  E  E  E  E  E   
--------------------------|--------------------------|
--------------------------|--------------------------|
--------------------------|--------------------------|
--------------------------|--------------------------|
-----0-----0-----0--1--1--|--1--0--0--0--1--0--0--0--|
-----0-----0-----0--1--1--|--1--0--0--0--1--0--0--0--|
 
 
  E  E  E  E  E  E  E  E     Q    E  E  E  E  E  E     E  E  E  E  E  E  E  E   
--------------------------|-------------------------|--------------------------|
--------------------------|-------------------------|--------------------------|
--------------------------|-------------------------|--------------------------|
--------------------------|-------------------------|--------------------------|
-----0-----0-----0--0--0--|--0----0--0--1--0--0--0--|-----0-----0-----0--1--1--|
-----0-----0-----0--0--0--|--0----0--0--1--0--0--0--|-----0-----0-----0--1--1--|
 
 
  E  E  E  E  E  E  E  E     E  E  E  E  E  E  E  E   
--------------------------|--------------------------|
--------------------------|--------------------------|
--------------------------|--------------------------|
--------------------------|--------------------------|
--1--0--0--0--1--0--0--0--|-----0-----0-----0--3--3--|
--1--0--0--0--1--0--0--0--|-----0-----0-----0--3--3--|
 
 
  E  E  E  E  E  E  E  E     E  E  E  E  E  E  E  E   
--------------------------|--------------------------|
--------------------------|--------------------------|
--------------------------|--------------------------|
--------------------------|--------------------------|
--3--0--0--0--1--0--0--0--|-----0-----0-----0--1--1--|
--3--0--0--0--1--0--0--0--|-----0-----0-----0--1--1--|
 
 
  E  E  E  E  E  E  E  E     E  E  E  E  E  E  E  E     H        Q    E  E   
--------------------------|--------------------------|----------------------|
--------------------------|--------------------------|----------------------|
--------------------------|--------------------------|----------------------|
--------------------------|--------------------------|----------------------|
--1--0--0--0--1--0--0--0--|-----0-----0-----0--0--0--|--3--------3----0--3--|
--1--0--0--0--1--0--0--0--|-----0-----0-----0--0--0--|--3--------3----0--3--|
 
 
  E  E  E  E  E  E  E  E     H        Q    E  E     E  E  E  E  E  E  E  E   
--------------------------|----------------------|--------------------------|
--------------------------|----------------------|--------------------------|
--------------------------|----------------------|--------------------------|
--------------------------|----------------------|--------------------------|
--L--3--3--3--3--3--3--0--|--4--------4----1--4--|--L--1--4--1--4--1--4--1--|
--L--3--3--3--3--3--3--0--|--4--------4----1--4--|--L--1--4--1--4--1--4--1--|
 
 
  E  E  E  E  E  E  E  E     E  E  E  E  E  E  E  E   
--------------------------|--------------------------|
--------------------------|--------------------------|
--------------------------|--------------------------|
--------------------------|--------------------------|
--4--1--4--1--4--1--4--1--|--4--1--4--1--4--1--4--1--|
--4--1--4--1--4--1--4--1--|--4--1--4--1--4--1--4--1--|
 
 
  PM PM PM PM PM PM PM PM    PM PM PM PM PM PM PM PM  
  E  E  E  E  E  E  E  E     E  E  E  E  E  E  E  E   
--------------------------|--------------------------|
--------------------------|--------------------------|
--------------------------|--------------------------|
--------------------------|--------------------------|
--0--0--0--0--0--0--0--0--|--0--0--0--0--0--0--0--0--|
--0--0--0--0--0--0--0--0--|--0--0--0--0--0--0--0--0--|
 
 
  PM PM PM PM PM PM PM PM    PM PM PM PM PM PM PM PM  
  E  E  E  E  E  E  E  E     E  E  E  E  E  E  E  E   
--------------------------|--------------------------|
--------------------------|--------------------------|
--------------------------|--------------------------|
--------------------------|--------------------------|
--0--0--0--0--0--0--0--0--|--0--0--0--0--0--0--0--0--|
--0--0--0--0--0--0--0--0--|--0--0--0--0--0--0--0--0--|
 
 
  PM PM PM PM PM PM PM PM    PM PM PM PM PM PM PM PM  
  E  E  E  E  E  E  E  E     E  E  E  E  E  E  E  E   
--------------------------|--------------------------|
--------------------------|--------------------------|
--------------------------|--------------------------|
--------------------------|--------------------------|
--0--0--0--0--0--0--0--0--|--0--0--0--0--0--0--0--0--|
--0--0--0--0--0--0--0--0--|--0--0--0--0--0--0--0--0--|
 
 
  PM PM PM PM PM PM PM PM    PM PM PM PM              
  E  E  E  E  E  E  E  E     E  E  E  E  E  E  E  E   
--------------------------|--------------------------|
--------------------------|--------------------------|
--------------------------|--------------------------|
--------------------------|--------------------------|
--0--0--0--0--0--0--0--0--|--0--0--0--0--7--4--7--5--|
--0--0--0--0--0--0--0--0--|--0--0--0--0--7--4--7--5--|
 
 
       PM PM PM PM    PM       PM                       
    E  E  E  E  E  E  E  E     E  E  E  E  E  E  E  E   
|---------------------------|--------------------------|
|---------------------------|--------------------------|
|*--------------------------|--------------------------|
|*--------------------------|--------------------------|
|---6--0--0--0--0--1--0--1--|--0--1--0--0--7--4--7--5--|
|---6--0--0--0--0--1--0--1--|--0--1--0--0--7--4--7--5--|
 
 
     PM PM PM PM    PM       PM                       
  E  E  E  E  E  E  E  E     E  E  E  E  E  E  E  E   
--------------------------|--------------------------|
--------------------------|--------------------------|
--------------------------|--------------------------|
--------------------------|--------------------------|
--6--0--0--0--0--1--0--1--|--0--1--0--0--7--4--7--5--|
--6--0--0--0--0--1--0--1--|--0--1--0--0--7--4--7--5--|
 
 
     PM PM PM PM    PM       PM                       
  E  E  E  E  E  E  E  E     E  E  E  E  E  E  E  E   
--------------------------|--------------------------|
--------------------------|--------------------------|
--------------------------|--------------------------|
--------------------------|--------------------------|
--6--0--0--0--0--1--0--1--|--0--1--0--0--7--4--7--5--|
--6--0--0--0--0--1--0--1--|--0--1--0--0--7--4--7--5--|
 
 
     PM PM PM PM    PM       PM                          
  E  E  E  E  E  E  E  E     E  E  E  E  E  E  E  E      
--------------------------|----------------------------||
--------------------------|----------------------------||
--------------------------|--------------------------*-||
--------------------------|--------------------------*-||
--6--0--0--0--0--1--0--1--|--0--1--0--0--7--4--7--5----||
--6--0--0--0--0--1--0--1--|--0--1--0--0--7--4--7--5----||
 
 
      PM PM PM PM    PM       PM                       
   E  E  E  E  E  E  E  E     E  E  E  E  E  E  E  E   
---------------------------|--------------------------|
---------------------------|--------------------------|
*--------------------------|--------------------------|
*--------------------------|--------------------------|
---6--0--0--0--0--1--0--1--|--0--1--0--0--7--4--7--5--|
---6--0--0--0--0--1--0--1--|--0--1--0--0--7--4--7--5--|
 
 
     PM PM PM PM    PM       PM                       
  E  E  E  E  E  E  E  E     E  E  E  E  E  E  E  E   
--------------------------|--------------------------|
--------------------------|--------------------------|
--------------------------|--------------------------|
--------------------------|--------------------------|
--6--0--0--0--0--1--0--1--|--0--1--0--0--7--4--7--5--|
--6--0--0--0--0--1--0--1--|--0--1--0--0--7--4--7--5--|
 
 
     PM PM PM PM    PM       PM                       
  E  E  E  E  E  E  E  E     E  E  E  E  E  E  E  E   
--------------------------|--------------------------|
--------------------------|--------------------------|
--------------------------|--------------------------|
--------------------------|--------------------------|
--6--0--0--0--0--1--0--1--|--0--1--0--0--7--4--7--5--|
--6--0--0--0--0--1--0--1--|--0--1--0--0--7--4--7--5--|
 
 
     PM PM PM PM    PM       PM                          
  E  E  E  E  E  E  E  E     E  E  E  E  E  E  E  E      
--------------------------|----------------------------||
--------------------------|----------------------------||
--------------------------|--------------------------*-||
--------------------------|--------------------------*-||
--6--0--0--0--0--1--0--1--|--0--1--0--0--7--4--7--5----||
--6--0--0--0--0--1--0--1--|--0--1--0--0--7--4--7--5----||
 
 
  Q    E  E  E  E  Q       E  E  E  E  E  E  E  E     Q    E  E  E  E  E  E   
------------------------|--------------------------|-------------------------|
------------------------|--------------------------|-------------------------|
-------------------8----|--L--8--8--8--8--8--8--8--|-------------------------|
-------------------8----|--L--8--8--8--8--8--8--8--|-------------------------|
--0----0--1--L--0--6----|--L--6--6--6--6--6--6--6--|--0----0--1--L--0--6--5--|
--0----0--1--L--0-------|--------------------------|--0----0--1--L--0--------|
 
 
  E  E  E  E  E  E  E  E     Q    E  E  E  E  Q       E  E  E  E  E  E  E  E   
--------------------------|------------------------|--------------------------|
--------------------------|------------------------|--------------------------|
--------------------------|------------------------|--------------------------|
--------------------------|--0----0--1-----0--8----|--L--8--8--8--8--8--8--8--|
-----5--------------3-----|--0----0--1--L--0--6----|--L--6--6--6--6--6--6--6--|
--6-----6--5--3--5-----5--|--0----0--1--L--0-------|--------------------------|
 
 
                         PM   PM                     PM PM PM PM    PM     
  Q    E  Q    Q.        Q    Q    E  E  E  E     E  E  E  E  E  E  E  E   
----------------------|------------------------|--------------------------|
----------------------|------------------------|--------------------------|
----------------------|------------------------|--------------------------|
--0-------0-----------|--0----0----------------|--------------------------|
--0-------0-----------|--0----0----7--4--7--5--|--6--0--0--0--0--1--0--1--|
--0-------0-----------|--0----0----7--4--7--5--|--6--0--0--0--0--1--0--1--|
 
 
  PM                            PM PM PM PM    PM     
  E  E  E  E  E  E  E  E     E  E  E  E  E  E  E  E   
--------------------------|--------------------------|
--------------------------|--------------------------|
--------------------------|--------------------------|
--------------------------|--------------------------|
--0--1--0--0--7--4--7--5--|--6--0--0--0--0--1--0--1--|
--0--1--0--0--7--4--7--5--|--6--0--0--0--0--1--0--1--|
 
 
  PM                            PM PM PM PM    PM     
  E  E  E  E  E  E  E  E     E  E  E  E  E  E  E  E   
--------------------------|--------------------------|
--------------------------|--------------------------|
--------------------------|--------------------------|
--------------------------|--------------------------|
--0--1--0--0--7--4--7--5--|--6--0--0--0--0--1--0--1--|
--0--1--0--0--7--4--7--5--|--6--0--0--0--0--1--0--1--|
 
 
  PM                            PM PM PM PM    PM     
  E  E  E  E  E  E  E  E     E  E  E  E  E  E  E  E   
--------------------------|--------------------------|
--------------------------|--------------------------|
--------------------------|--------------------------|
--------------------------|--------------------------|
--0--1--0--0--7--4--7--5--|--6--0--0--0--0--1--0--1--|
--0--1--0--0--7--4--7--5--|--6--0--0--0--0--1--0--1--|
 
 
  PM          PM PM PM PM         PM PM PM PM    PM     
  E  E  E  E  E  E  E  E       E  E  E  E  E  E  E  E   
--------------------------||---------------------------|
--------------------------||---------------------------|
--------------------------||*--------------------------|
--------------------------||*--------------------------|
--0--1--0--0--7--4--7--5--||---6--0--0--0--0--1--0--1--|
--0--1--0--0--7--4--7--5--||---6--0--0--0--0--1--0--1--|
 
 
  PM    PM PM PM PM PM PM       PM PM PM PM    PM     
  E  E  E  E  E  E  E  E     E  E  E  E  E  E  E  E   
--------------------------|--------------------------|
--------------------------|--------------------------|
--------------------------|--------------------------|
--------------------------|--------------------------|
--0--1--0--0--7--4--7--5--|--6--0--0--0--0--1--0--1--|
--0--1--0--0--7--4--7--5--|--6--0--0--0--0--1--0--1--|
 
 
  PM    PM PM PM PM PM PM       PM PM PM PM    PM     
  E  E  E  E  E  E  E  E     E  E  E  E  E  E  E  E   
--------------------------|--------------------------|
--------------------------|--------------------------|
--------------------------|--------------------------|
--------------------------|--------------------------|
--0--1--0--0--7--4--7--5--|--6--0--0--0--0--1--0--1--|
--0--1--0--0--7--4--7--5--|--6--0--0--0--0--1--0--1--|
 
 
  PM    PM PM PM PM PM PM       PM PM PM PM    PM     
  E  E  E  E  E  E  E  E     E  E  E  E  E  E  E  E   
--------------------------|--------------------------|
--------------------------|--------------------------|
--------------------------|--------------------------|
--------------------------|--------------------------|
--0--1--0--0--7--4--7--5--|--6--0--0--0--0--1--0--1--|
--0--1--0--0--7--4--7--5--|--6--0--0--0--0--1--0--1--|
 
 
  PM    PM PM PM PM PM PM       PM    PM PM PM PM PM PM   
  E  E  E  E  E  E  E  E        E  E  E  E  E  E  E  E    
----------------------------||--------------------------||
----------------------------||--------------------------||
--------------------------*-||--------------------------||
--------------------------*-||--------------------------||
--0--1--0--0--7--4--7--5----||--0--1--0--0--7--4--7--5--||
--0--1--0--0--7--4--7--5----||--0--1--0--0--7--4--7--5--||
 
 
 
 

Tap to rate this tab
 
# A B C D E F G H I J K L M N O P Q R S T U V W X Y Z