Song name
# A B C D E F G H I J K L M N O P Q R S T U V W X Y Z

Melvins - Honey Bucket tab

Track- 5
Album- Houdini
Year- 1993
Length- 2:42(its really 3:01 but the last 19 seconds is really nothing)
p.m- Palm mute(only notes with dots under them)

The first 54 seconds of the song is hard to understand so
don't get mad if it is wrong. Ill divde it up into
sections for ease.

Intro, sec. 1- 00:00- 00:15

e-------------------------|
B-------------------------|
G-------------------------|
D-------------------------|
A-0-0-0-0-2-0-0-0--0--0---|
D-0-0-0-0-2-0-0-0--0--0---|

e-----------------------------------------------------|
B-----------------------------------------------------|
G-----------------------------------------------------|
D-----------------------------------------------------|
A-0-0-0-0-2-0-0-0--0--0-0-2-2-2-2-0-0-2-0-0-0--0--0---|
D-0-0-0-0-2-0-0-0--0--0-0-2-2-2-2-0-0-2-0-0-0--0--0---|


e-for this part, play the part right above(not the very first), then play this, then 
that part again)
B-------------------------------------------------|
G-------------------------------------------------|
D-------------------------------------------------|
A-0-0-0-0-2-0-0-0--0--0-0-3-3-3-3-0-0-2-0-0--0--0-|
D-0-0-0-0-2-0-0-0--0--0-0-3-3-3-3-0-0-2-0-0--0--0-|

Intro sec. 2- 00:15-00:30

e-----------------------------------------------------------------------|
B-----------------------------------------------------------------------|
G-----------------------------------------------------------------------|
D-----------------------------------------------------------------------|
A-0-0-0-2---2-0-2-0-2-0-2-0-2-3---3-0-3-0-3-0-3-0-3-0-3-0-3-0-3-3-3-3-3-|
D-0-0-0-2---2-0-2-0-2-0-2-0-2-3---3-0-3-0-3-0-3-0-3-0-3-0-3-0-3-3-3-3-3-|

e-----------------------------------------------------------------------|
B-----------------------------------------------------------------------|
G-----------------------------------------------------------------------|
D-----------------------------------------------------------------------|
A-0-----------0-0-0-0-0-0-0-2-2-2-2-2-2-2-3-3-3-3-3-3-3-5-5-5-5-5-5-5-5-|
D-0-----------0-0-0-0-0-0-0-2-2-2-2-2-2-2-3-3-3-3-3-3-3-5-5-5-5-5-5-5-5-|

Intro sec. 3 00:30- 00:55

e-----------------------|
B-----------------------|
G-----------------------|
D-7-7-7-7-7-7-7-6--6--6-|
A-5-5-5-5-5-5-5-4--4--4-|
D-----------------------|

e-----------------------------------------------------|
B-----------------------------------------------------|
G-----------------------------------------------------|
D-----------------------------------------------------|
A-0-0-0-0-2-0-0-0--0--0-0-2-2-2-2-0-0-2-0-0-0--0--0---|
D-0-0-0-0-2-0-0-0--0--0-0-2-2-2-2-0-0-2-0-0-0--0--0---|


e-------------------------------------------------|
B-------------------------------------------------|
G-------------------------------------------------|
D-------------------------------------------------|
A-0-0-0-0-2-0-0-0--0--0-0-3-3-3-3-0-0-2-0-0--0--0-|
D-0-0-0-0-2-0-0-0--0--0-0-3-3-3-3-0-0-2-0-0--0--0-|

e-----------------------------------------------------|
B-----------------------------------------------------|
G-----------------------------------------------------|
D-----------------------------------------------------|
A-0-0-0-0-2-0-0-0--0--0-0-2-2-2-2-0-0-2-0-0-0--0--0---|
D-0-0-0-0-2-0-0-0--0--0-0-2-2-2-2-0-0-2-0-0-0--0--0---|

e-----------------------------------------------------|
B-----------------------------------------------------|
G-----------------------------------------------------|
D-----------------------------------------------------|
A-0-0-0-0-2-0-0-0--0--0-0-2-2-2-2-0-0-2-0-0-0--0--0---|
D-0-0-0-0-2-0-0-0--0--0-0-2-2-2-2-0-0-2-0-0-0--0--0---|

e-------------------------------------------------|
B-------------------------------------------------|
G-------------------------------------------------|
D-------------------------------------------------|
A-0-0-0-0-2-0-0-0--0--0-0-3-3-3-3-0-0-2-0-0--0--0-|
D-0-0-0-0-2-0-0-0--0--0-0-3-3-3-3-0-0-2-0-0--0--0-|

e-----------------------------------------------------|
B-----------------------------------------------------|
G-----------------------------------------------------|
D-----------------------------------------------------|
A-0-0-0-0-2-0-0-0--0--0-0-2-2-2-2-0-0-2-0-0-0--0--0---|
D-0-0-0-0-2-0-0-0--0--0-0-2-2-2-2-0-0-2-0-0-0--0--0---|

e-----------------------------------------------------------------------|
B-----------------------------------------------------------------------|
G-----------------------------------------------------------------------|
D-----------------------------------------------------------------------|
A-0-0-0-2---2-0-2-0-2-0-2-0-2-3---3-0-3-0-3-0-3-0-3-0-3-0-3-0-3-3-3-3-3-|
D-0-0-0-2---2-0-2-0-2-0-2-0-2-3---3-0-3-0-3-0-3-0-3-0-3-0-3-0-3-3-3-3-3-|

Main Riff and rest of the song sec 1 00:55- 01:48, 01:59- 02: 32
dont play the first palm muted notes, Im not sure how many there
are, play what sounds like enough.

e-----------------------------------------------|
B-----------------------------------------------|
G-----------------------------------------------|
D-----------------------------------------------|
A 0-0-0-0-0-0-0-0-0-0-0-0-0-0-0-0-0-0-0-0-0-0-0-|
D-0-0-0-0-0-0-0-0-0-0-0-0-0-0-0-0-0-0-0-0-0-0-0-|

e(-this is the part that actually gets the repeat)
B-------------------------------|
G-------------------------------|
D-------------------------------|
A-0-0-0-1-0-1-0-0-0-6-5-6-5-6-0-|
D-0-0-0-1-0-1-0-0-0-6-5-6-5-6-0-|
p.m . .   .   . .             .

Rest of song sec. 2 01:48-01:59- 02:32- 02:42

e-----------------------------------|
B-----------------------------------|
G-----------------------------------|
D---------------8-8-8-8-8-8-8-8-8-8-|
A-0--0-2--0-----6-6-6-6-6-6-6-6-6-6-|
D-0--0-2--0-------------------------|

e
B
G
D-----------7------------------|
A-0--0-2--0-5--5-6-5-6-4-5-4-5-|
D-0--0-2--0----5-6-5-6-4-5-4-5-|

e------------------------------------|
B------------------------------------|
G------------------------------------|
D-----------8-8-8-8-8-8-8-8-8-8------|
A-----------6-6-6-6-6-6-6-6-6-6-0--0-|
D-0--0-2--0---------------------0--0-|

Feel free to comment on it if you see something wrong and I will try to fix it.
Tap to rate this tab
# A B C D E F G H I J K L M N O P Q R S T U V W X Y Z