Song name
# A B C D E F G H I J K L M N O P Q R S T U V W X Y Z

Mentality - True Friends tab

Off the demo
http://www.myspace.com/mentalityrock

Distorted- DropD
Intro
[------------------------------------------|
[------------------------------------------|  x4
[------------------------------------------|
[-0-0--------------0(0)-0------------------|
[-0-0--------------0(0)-0------------------|
[-0-0-10p0-10h12-0-0(0)-0-10p0-10h12-10h12-|
  * *            *      *
Gtr. 1
[------------------------------------------------------------|
[------------------------------------------------------------|
[------------------------------------------------5---5/7-5/7-|
[-0-0-3p0-3h5--0--0-3p0-3p0-3h5--0-0-3p0-3h5-0-0-5-0-5/7-5/7-|
[-0-0-3p0-3h5--0--0-3p0-3p0-3h5--0-0-3p0-3h5-0-0-3-0-3/5-3/5-|
[-0-0-3p0-3h5--0--0-3p0-3p0-3h5--0-0-3p0-3h5-0-0---0---------|
                                               *   *
Gtr. 2
[---------------------------------------------------|
[---------------------------------------------------|
[---------------------------------------------------|
[-0-0---------0--0-0--------------0-0--------0--0-0-|
[-0-0---------0--0-0--------------0-0--------0--0-0-|
[-0-0---------0--0-0--------------0-0--------0--0-0-|
  * *         *  * *              * *        *  * *
     Play Twice
__________________________________________

[----------------------------------|
[----------------------------------|
[----------------------------------|
[-8-------7--------5---------------|
[-8---8-----10-8-7-5---7---7-8-7-5-|
[-8-8---8----------5-5---5---------|
    *   *            *   *
Verse
[------------------------------------------|
[------------------------------------------| x5
[-----------------------------5--5-5-5-5h7-|
[-0-0--0-3--3-3-3-3h5--0-0--0-5--5-5-5-5h7-|
[-0-0--0-3--3-3-3-3h5--0-0--0-3--3-3-3-3h5-|
[-0-0--0-3--3-3-3-3h5--0-0--0--------------|
  * *  *    * * *      * *  *    * * *

[--------------------------------------|
[--------------------------------------|
[--------------------------------------|
[-8-------7--------5---------------0-0-|
[-8---8-----10-8-7-5---7---7-8-7-5-0-0-|
[-8-8---8----------5-5---5---------0-0-|
    *   *            *   *

Chorus.. Drums and build up..
{---------------------|
[---------------------|
[---------------------|
[---------------------| Builds up
[---------------------|
[-0-0-0-0-0-0-0-0-0-0-|
  * * * * *

Gtr. 1
[------------------------------------------------------------|
[------------------------------------------------------------|
[------------------------------------------------5---5/7-5/7-|
[-0-0-3p0-3h5--0--0-3p0-3p0-3h5--0-0-3p0-3h5-0-0-5-0-5/7-5/7-|
[-0-0-3p0-3h5--0--0-3p0-3p0-3h5--0-0-3p0-3h5-0-0-3-0-3/5-3/5-|
[-0-0-3p0-3h5--0--0-3p0-3p0-3h5--0-0-3p0-3h5-0-0---0---------|
                                               *   *
Gtr. 2
[---------------------------------------------------|
[---------------------------------------------------|
[---------------------------------------------------|
[-0-0---------0--0-0--------------0-0--------0--0-0-|
[-0-0---------0--0-0--------------0-0--------0--0-0-|
[-0-0---------0--0-0--------------0-0--------0--0-0-|
  * *         *  * *              * *        *  * *
     Play Twice
__________________________________________

[----------------------------------|
[----------------------------------|
[----------------------------------|
[-8-------7--------5---------------|
[-8---8-----10-8-7-5---7---7-8-7-5-|
[-8-8---8----------5-5---5---------|
    *   *            *   *
Verse
[------------------------------------------|
[------------------------------------------| x5
[-----------------------------5--5-5-5-5h7-|
[-0-0--0-3--3-3-3-3h5--0-0--0-5--5-5-5-5h7-|
[-0-0--0-3--3-3-3-3h5--0-0--0-3--3-3-3-3h5-|
[-0-0--0-3--3-3-3-3h5--0-0--0--------------|
  * *  *    * * *      * *  *    * * *

[--------------------------------------|
[--------------------------------------|
[--------------------------------------|
[-8-------7--------5---------------0-0-|
[-8---8-----10-8-7-5---7---7-8-7-5-0-0-|
[-8-8---8----------5-5---5---------0-0-|
    *   *            *   *


Chorus.. Drums and build up..
{---------------------|
[---------------------|
[---------------------|
[---------------------| Builds up
[---------------------|
[-0-0-0-0-0-0-0-0-0-0-|
  * * * * *
[----------------------------------|
[----------------------------------|
[----------------------------------|
[-8-------7--------5---------------|
[-8---8-----10-8-7-5---7---7-8-7-5-|
[-8-8---8----------5-5---5---------|
    *   *            *   *

Solo
[----------------------------------------------------------------------------|
[----------------------------------------------------------------------------|
[----------------------------------------------------------------------------|
[-0-0-10---------8------------0-10-------------------------------------------|
[-0-0----12-10-8-8-8-----8h10-0-10-10-------12-------13----12-------10h12p10-|
[-0-0------------8---8-8------0-10----10-10----10-10----10----10-10----------|
    *                * *              *   *     *  *     *     *  *
^x4

[--------------------------------------------------------|
[--------------------------------------------------------|
[--------------------------------------------------------|
[-0-0-----------0-0-0---0--------8-8-10-8--5-5-5-5-5-5-5-|
[-0-0-8(8)-7(7)-0-0-0-8-0-8h10p8-8-8----8--5-5-5-5-5-5-5-|
[-0-0-----------0-0-0---0--------8-8----8--5-5-5-5-5-5-5-|
    *           *   *   *          *       * * * * * * *

[---------------------------------------------------------|
[---------------------------------------------------------|
[---------------------------------------------------------|
[-0------------------------------8-8-10-8-0-5---7---------|
[-0---8---7---8-------8---8h10p8-8-8----8-0-5-------8---7-|
[-0-0---0---0---0-0-0---0--------8-8----8-0-5-5---5---5---|
    *   *   *   * * *   *          *      *   *   *   *
____________________________
Intro Again
[------------------------------------------|
[------------------------------------------|  x4
[------------------------------------------|
[-0-0--------------0(0)-0------------------|
[-0-0--------------0(0)-0------------------|
[-0-0-10p0-10h12-0-0(0)-0-10p0-10h12-10h12-|
  * *            *      *
Gtr. 1
[------------------------------------------------------------|
[------------------------------------------------------------|
[------------------------------------------------5---5/7-5/7-|
[-0-0-3p0-3h5--0--0-3p0-3p0-3h5--0-0-3p0-3h5-0-0-5-0-5/7-5/7-|
[-0-0-3p0-3h5--0--0-3p0-3p0-3h5--0-0-3p0-3h5-0-0-3-0-3/5-3/5-|
[-0-0-3p0-3h5--0--0-3p0-3p0-3h5--0-0-3p0-3h5-0-0---0---------|
                                               *   *
Gtr. 2
[---------------------------------------------------|
[---------------------------------------------------|
[---------------------------------------------------|
[-0-0---------0--0-0--------------0-0--------0--0-0-|
[-0-0---------0--0-0--------------0-0--------0--0-0-|
[-0-0---------0--0-0--------------0-0--------0--0-0-|
  * *         *  * *              * *        *  * *
     Play Twice
__________________________________________

[----------------------------------|
[----------------------------------|
[----------------------------------|
[-8-------7--------5---------------|
[-8---8-----10-8-7-5---7---7-8-7-5-|
[-8-8---8----------5-5---5---------|
    *   *            *   *
Verse
[------------------------------------------|
[------------------------------------------| x4
[-----------------------------5--5-5-5-5h7-|
[-0-0--0-3--3-3-3-3h5--0-0--0-5--5-5-5-5h7-|
[-0-0--0-3--3-3-3-3h5--0-0--0-3--3-3-3-3h5-|
[-0-0--0-3--3-3-3-3h5--0-0--0--------------|
  * *  *    * * *      * *  *    * * *

Go to the myspace
www.myspace.com/mentalityrock
Tap to rate this tab
 
# A B C D E F G H I J K L M N O P Q R S T U V W X Y Z