Guitaretab - guitar tabs
Song name
# A B C D E F G H I J K L M N O P Q R S T U V W X Y Z

Metallica - To Live Is To Die tab





To Live Is to Die - METALLICA - And Justice for all...
		     ( 1988 )





 --Intro-- 



  Acoustic Guitar		( Starts to become clearer )

e|------7-7--10--12--12---7-7--8-7--10-7--7-7------------7--10-10--10--|**Play4x
B|-7-7--7-7--10---0-------0-0--0-0---0-0--0-0-0-------0--0------0------|
G|-7-7-----------12-------7----7-------7--7-----7---7----7-------------|
D|------------------------------------------------9--------------------|
A|---------------------------------------------------------------------|
E|---------------------------------------------------------------------|

e|------------------------------------| 
B|-7-8--8p7----5-7--------------------|
G|-7--------9------9---11\9-9---------|
D|----------------------9\7-7---------|
A|------------------------------------|
E|------------------------------------|




  Guitar I	RIFF  1.			
e|--------------------------------------------------------|** play 3 times**
B|--------------------------------------------------------|
G|--------------------------------------------------------|
D|-4-4--------4--5-5-----5p4--4-4--------4-7-7--7\5--5\4--|
A|-4-4-x-x--2-4--5-5-x-x-5p4--4-4-x-x--2-4-7-7--7\5--5\4--|
E|--------------------------------------------------------|



		RIFF  2.		
e|------------------------------------------------------------|
B|------------------------------------------------------------|
G|------------------------------------------------------------|
D|-4------5------4------7---------4------5------4------7------|
A|-4-4-4--5-5-5--4-4-4--7-7-7-----4-4-4--5-5-5--4-4-4--7-7-7--|
E|------------------------------------------------------------|

e|----------------------------------------------------------|
B|----------------------------------------------------------|
G|----------------------------------------------------------|
D|-4-5---4-7---4-5---4-7------------------------------------|
A|-4-5---4-7---4-5---4-7---4-5-4-5-4-5-4-5p4h5p4h5p4h5p4h5--|
E|----------------------------------------------------------|



		
e|--------------------------------------------------------|** play 2 times**
B|--------------------------------------------------------|
G|--------------------------------------------------------|
D|-4-4--------4--5-5-----5p4--4-4--------4-7-7--7\5--5\4--|
A|-4-4-x-x--2-4--5-5-x-x-5p4--4-4-x-x--2-4-7-7--7\5--5\4--|
E|--------------------------------------------------------|




e|------------------------------------------------------------|
B|------------------------------------------------------------|
G|------------------------------------------------------------|
D|-4------5------4------7---------4------5------4------7------|
A|-4-4-4--5-5-5--4-4-4--7-7-7-----4-4-4--5-5-5--4-4-4--7-7-7--|
E|------------------------------------------------------------|

e|--------------------------------------------------|
B|--------------------------------------------------|
G|--------------------------------------------------|
D|-4-5---4-7---4-5---4-7----------------------------|
A|-4-5---4-7---4-5---4-7---4p5-4p5-4p5-4p5-4p5-4p5--|
E|--------------------------------------------------|



  Guitar II	      ( Play RIFF 1. two times under this part )
e|------------------------------------------|
B|------------------------------------------|** play 2 times **
G|-11\6-6----4-6-7\4-4----2-4-6\3-3--3-3-2--|
D|------------------------------------------|
A|------------------------------------------|
E|------------------------------------------|



  Guitar I
e|-------------------------------------------------------------------------------------|
B|-------------------------------------------------------------------------------------|
G|-----------5-4---4----------------6p5-4------------5-4---4--------------------6p5-4--|
D|-4-4--7-4--5-4---4-4---7---4--4-4-6p5-4--4-4--7-4--5-4---4-4-x-x-x-7---4--4-4-6p5-4--|
A|-4-4--7-4----------4---7---4--4-4--------4-4--7-4----------4-------7---4--4-4--------|
E|-------------------------------------------------------------------------------------|




  Guitar II	       ( Play RIFF 1. two times under this part )
e|-------------------------------------------------------------|
B|-7b9r7p5-----8b10r8p6----7b9r7p5-----------------------------|** play 2 times **
G|---------6-----------7-----------6--3h6-4--4\2-2h4--2\1-1h2--|
D|-------------------------------------------------------------|
A|-------------------------------------------------------------|
E|-------------------------------------------------------------|



  Guitar I
e|------------------------------------------------------------|
B|------------------------------------------------------------|
G|------------------------------------------------------------|
D|-4------5------4------7---------4------5------4------7------|
A|-4-4-4--5-5-5--4-4-4--7-7-7-----4-4-4--5-5-5--4-4-4--7-7-7--|
E|------------------------------------------------------------|

e|----------------------------------------------------------|
B|----------------------------------------------------------|
G|----------------------------------------------------------|
D|-4-5---4-7---4-5---4-7------------------------------------|
A|-4-5---4-7---4-5---4-7---4-5-4-5-4-5-4-5p4h5p4h5p4h5p4h5--|
E|----------------------------------------------------------|





 --GUITAR SOLO--
		

		( Play RIFF 1. four times and RIFF 2. once under the solo )
  Guitar II
e|-------------------------------------------------------------14b--|
B|-13b15--13--13--13-13-13-13-1313--10-12--12-12-10--12-12-10-------|
G|-12b14------------------------------------------------------------|
D|------------------------------------------------------------------|
A|------------------------------------------------------------------|
E|------------------------------------------------------------------|


e|-10-12-10--------------------------------------------------------------------|
B|----------12-10h12-12p10-------10-12--12p10----12-----10h12-12p10--12p10-----|
G|-------------------------11-----------------11----11---------------------11--|
D|-----------------------------------------------------------------------------|
A|-----------------------------------------------------------------------------|
E|-----------------------------------------------------------------------------|


e|----------------------------------------------------------14b--|
B|-12p10-----10h12-12--12p10----12p10----12p10----12p10----------|
G|-------11------------------11-------11-------11-------11-------|
D|---------------------------------------------------------------|
A|---------------------------------------------------------------|
E|---------------------------------------------------------------|


e|-10-12-10--------------------------------------------------------------------|
B|----------12-10h12-12p10------------10-12--10h12p10---------10-12--10h12p10--|
G|-------------------------11----9-11--------------------9-11------------------|
D|-----------------------------------------------------------------------------|
A|-----------------------------------------------------------------------------|
E|-----------------------------------------------------------------------------|


e|-------------------------------------------------------------14--14b--|
B|------10-12--12p10-----12p10-----12p10----12p10-----12p10-------------|
G|-9-11--------------11--------11-------11--------11--------11----------|
D|----------------------------------------------------------------------|
A|----------------------------------------------------------------------|
E|----------------------------------------------------------------------|


e|-----------------------------------------------------------------------------------------|
B|---------------------------------10h12--12-12-10h12--12-12-10h12--12-12-10h12--12-12-10--|
G|-----------------------9h11-119----------------------------------------------------------|
D|------------9h11-11p9--------------------------------------------------------------------|
A|-9-9--12p9-------------------------------------------------------------------------------|
E|-----------------------------------------------------------------------------------------|


e|------------------------------------------------------------------|
B|-12b14r12p10--12-14b16r14p12--12-10-------------------------------|
G|------------------------------------11-9---------11-9-------------|
D|-----------------------------------------11-9\7-------11-9\7h9----|
A|---------------------------------------------------------------9--|
E|------------------------------------------------------------------|


e|-12p11p10-10-10h12-12---12p11p10-10-10h12-12---12p11p10-10-10h12-12---12p11p10-10-10h12-12--|
B|--------------------------------------------------------------------------------------------|
G|--------------------------------------------------------------------------------------------|
D|--------------------------------------------------------------------------------------------|
A|--------------------------------------------------------------------------------------------|
E|--------------------------------------------------------------------------------------------|


e|-12p11p10-10---12p11p10-10---12p11p10-10---12p11p10-10---10-10-10--11-11-12-14--15-15--|
B|---------------------------------------------------------------------------------------|
G|---------------------------------------------------------------------------------------|
D|---------------------------------------------------------------------------------------|
A|---------------------------------------------------------------------------------------|
E|---------------------------------------------------------------------------------------|


e|-17-17--19-19--21b-21b-21b--(21)-----|
B|-------------------------------------|
G|-------------------------------------|
D|-------------------------------------|
A|-------------------------------------|
E|-------------------------------------|




  Guitar II		( Play RIFF 1. three times under this part )	
e|-------------------------------------------------------------|
B|-7b9r7p5-----8b10r8p6----7b9r7p5-----------------------------|
G|---------6------------7----------6--3h6-4--4\2-2h4--2\1-1h2--|
D|-------------------------------------------------------------|
A|-------------------------------------------------------------|
E|-------------------------------------------------------------|


e|-------------------------------------------------------------|
B|-7b9r7p5-----8b10r8p6----7b9r7p5-----------------------------|
G|---------6------------7----------6--3h6-4--4\2-2h4--2\1-1h2--|
D|-------------------------------------------------------------|
A|-------------------------------------------------------------|
E|-------------------------------------------------------------|

[ Tab from: http://www.guitaretab.com/m/metallica/21417.html ]
e|---------------------------------------------------------------------------|
B|-7b9r7p5-----8b10r8p6-----5b7r5p3-----8b10r8p6-----------------------------|
G|---------6------------7-----------4------------7\4----4h5-(5)-4\2--4--2----|
D|------------------------------------------------------------------------5--|
A|---------------------------------------------------------------------------|
E|---------------------------------------------------------------------------|


e|-------------------------------------------------------------------------------|
B|-------------------------------------------------------------------------------|
G|-------------------4h5--4-5-7---4--------------4------------4h5---4\2--4--2----|
D|-5---5-5-5-5--7-------------------5---5--5-5-5---5----5-5-5-----------------5--|
A|-------------------------------------------------------------------------------|
E|-------------------------------------------------------------------------------|


e|----------------------------------------------------|
B|----------------------------------------------------|
G|-------------------4h5--4-5-7---4--------------4----|
D|-5---5-5-5-5--7-------------------5---5--5-5-5---5--|
A|----------------------------------------------------|
E|----------------------------------------------------|



  Acoustic Guitar
e|---------------------------------------------------------|
B|---------------------------------------------------------|
G|-4h5-(5)-4h5p4-4\2-----------------5--7-7--4--------4----|
D|-------------------5--5-5-5h7-7--------------5-5--5---5--|
A|---------------------------------------------------------|
E|---------------------------------------------------------|


  Acoustic Guitar		RIFF  3.
e|-------------------------------------------------------|** play 3 times **
B|-------------------------------------------------------|
G|-7--5--4h5p4-4\2-----------------5--7-7--4--------4----|
D|-----------------5--5-5-5h7-7--------------5-5--5---5--|
A|-------------------------------------------------------|
E|-------------------------------------------------------|




				( Play RIFF 3. two times under the solo )
  Guitar II
e|-------------------------------------------------------------------------------|
B|-------------------------------------------------------------------------------|
G|-9--9-7\5--5p4---------4h5--5-7--5-4-5p4------------4h5-5-5--5h7-7-7--7h9-9-9--|
D|---------------7---5-7-------------------5/7----5-7----------------------------|
A|-------------------------------------------------------------------------------|
E|-------------------------------------------------------------------------------|

e|-----------------------------------------------------------------------------|
B|-----------------------------------------------------------------------------|
G|-9b1or9--9-10-9\7--7p5-5p4--4-5p4-----------------4h5p4--4h5p4---4--5-5p4-7--|
D|----------------------------------5---5h7-7p5-7------------------------------|
A|-----------------------------------------------------------------------------|
E|-----------------------------------------------------------------------------|

e|-----------------------------------------------------------------------------------|
B|---------------------------10---10-10-10h12p10--10h12p10--10-12p10-8---10-12p10-8--|
G|-9-9h10p9-9-7\5-5p4----------------------------------------------------------------|
D|----------------------5/7----------------------------------------------------------|
A|-----------------------------------------------------------------------------------|
E|-----------------------------------------------------------------------------------|

e|-------------------------------|
B|-10-13p12-10p8--10h12p10-(10)--|
G|-------------------------------|
D|-------------------------------|
A|-------------------------------|
E|-------------------------------|




  Guitar I
e|----------------------------------------------------------------------------------|
B|----------------------------------------------------------------------------------|
G|-4h5-(5)-4\2--4--2----------------------4h5--4-5-7---4--------------4-------------|
D|-------------------5--5---5-5-5-5--7-------------------5---5--5-5-5---5----5-5-5--|
A|----------------------------------------------------------------------------------|
E|----------------------------------------------------------------------------------|


e|-----------------------------------------------------------------------|
B|-----------------------------------------------------------------------|
G|-4h5---4\2--4--2----------------------4h5--4-5-7---4--------------4----|
D|-----------------5--5---5-5-5-5--7-------------------5---5--5-5-5---5--|
A|-----------------------------------------------------------------------|
E|-----------------------------------------------------------------------|


e|----------------------------------------------------------------------------------|
B|-------------------------5-5-----------------------------------------------5-5----|
G|-------4---5----5-5----5-----5--7h9-9-9-7---5h7-7-7-7-7h9----5----5-5----5-----5--|
D|-5-5-5-------7------7------------------------------------------7-----7------------|
A|----------------------------------------------------------------------------------|
E|----------------------------------------------------------------------------------|


e|----------------------------------------------------------------------------------|
B|-------------------------------------------7-7------------------------------------|
G|-7h9-9-9-7---5h7-7-7-7-7h9---7----7-7----7-----7---9h11-11-11-9---7h9-9-9-9-9h11--|
D|-------------------------------9------9-------------------------------------------|
A|----------------------------------------------------------------------------------|
E|----------------------------------------------------------------------------------|


e|---------------------------------------------------------------|
B|---------------7----------------------------------7----7-------|
G|-7----7-7----7---7----7-7--7----7-7--7-----7-7--7----7---7--9--|
D|---9------9--------9---------9---------9-----------------------|
A|---------------------------------------------------------------|
E|---------------------------------------------------------------|


e|--------------------------------|
B|----------------11-11-11-11h14--|
G|-9-9-9--10-12-------------------|
D|--------------------------------|
A|--------------------------------|
E|--------------------------------|



 ============================================================= 
 |                                                           |
 |  When a man lies. He murders some part of the world.      |
 |  These are the pale deaths which men miscall  their lives |
 | All this I cannot bear to witness any longer. Cannot the  |
 | kingdom of salvation. Take me home.                       |
 |                                                           |
 ============================================================= 



  Guitar I
e|--------------------------------------------------------|** play 2 times**
B|--------------------------------------------------------|
G|--------------------------------------------------------|
D|-4-4--------4--5-5-----5p4--4-4--------4-7-7--7\5--5\4--|
A|-4-4-x-x--2-4--5-5-x-x-5p4--4-4-x-x--2-4-7-7--7\5--5\4--|
E|--------------------------------------------------------|



  Guitar II	      ( Play RIFF 1. two times under this part )
e|------------------------------------------|
B|------------------------------------------|** play 2 times **
G|-11\6-6----4-6-7\4-4----2-4-6\3-3--3-3-2--|
D|------------------------------------------|
A|------------------------------------------|
E|------------------------------------------|

  Guitar I
e|-------------------------------------------------------------------------------------|
B|-------------------------------------------------------------------------------------|
G|-----------5-4---4----------------6p5-4------------5-4---4--------------------6p5-4--|
D|-4-4--7-4--5-4---4-4---7---4--4-4-6p5-4--4-4--7-4--5-4---4-4-x-x-x-7---4--4-4-6p5-4--|
A|-4-4--7-4----------4---7---4--4-4--------4-4--7-4----------4-------7---4--4-4--------|
E|-------------------------------------------------------------------------------------|



  Guitar II
e|-------------------------------------------------------------|
B|-7b9r7p5-----8b10r8p6----7b9r7p5-----------------------------|
G|---------6-----------7-----------6--3h6-4--4\2-2h4--2\1-1h2--|
D|-------------------------------------------------------------|
A|-------------------------------------------------------------|
E|-------------------------------------------------------------|

e|-------------------------------------|
B|-7b9r7p5-----8b10r8p6-----5b7r5p3----|
G|---------6------------7-----------4--|
D|-------------------------------------|
A|-------------------------------------|
E|-------------------------------------|



  Guitar I
e|--------------------------------------------------------|** play 2 times**
B|--------------------------------------------------------|
G|--------------------------------------------------------|
D|-4-4--------4--5-5-----5p4--4-4--------4-7-7--7\5--5\4--|
A|-4-4-x-x--2-4--5-5-x-x-5p4--4-4-x-x--2-4-7-7--7\5--5\4--|
E|--------------------------------------------------------|

					( Fade out )
e|--------------------------------------------------------------------------------------|
B|--------------------------------------------------------------------------------------|
G|--------------------------------------------------------------------------------------|
D|-4-4---4-4-----4-4---4-4------4-4---4-4------4-4---4-4------4-4---4-4------4-4---4-4--|
A|-4-4---4-4-----4-4---4-4------4-4---4-4------4-4---4-4------4-4---4-4------4-4---4-4--|
E|--------------------------------------------------------------------------------------|




  Acoustic Guitar

e|------7-7--10--12--12---7-7--8-7--10-7--7-7------------7--10-10--10--|**Play2x
B|-7-7--7-7--10---0-------0-0--0-0---0-0--0-0-0-------0--0------0------|
G|-7-7-----------12-------7----7-------7--7-----7---7----7-------------|
D|------------------------------------------------9--------------------|
A|---------------------------------------------------------------------|
E|---------------------------------------------------------------------|

e|------------------------------------| 
B|-7-8--8p7----5-7--------------------|
G|-7--------9------9---11\9-9---------|
D|----------------------9\7-7---------|
A|------------------------------------|
E|------------------------------------|



DONE!   PLEASE RATE!
      

------------------|
/ = slide up      |
\ = slide down    |
h = hammer on     | 
p = pull off      |
b = bend          |
r = release       |
x = muted string  |
( )= Let Ring Out | 
------------------|
Related for To Live Is To Die tab
×
Best way to learn
"To Live Is To Die"