Song name
# A B C D E F G H I J K L M N O P Q R S T U V W X Y Z

Metric - Soft Rock Star tab

Help us improve GuitareTab! Take a short survey!
Tuning: Standard

Intro:
e|---------------------------------------------------------------------------------|
B|------13--------13-------12--------12--------11--------11--------11--------11----|
G|----12--12----12--12---12--12----12--12----12--12----12--12----12--12----12--12--|
D|--14--------14--------14-------14--------14--------14--------14--------14--------|
A|---------------------------------------------------------------------------------|
E|---------------------------------------------------------------------------------|

Verse: 
e|------------------------------------------------------------------------------|
B|----------------------1---------1----3-----------------------1---------1------|
G|----2---0----0---0--------0---------------2---0----0---0---------0---------0--|
D|------2--------2--------2---------2---------2--------2---------2---------2----|x3
A|--0-----------------3---------3---------0------------------3---------3--------|
E|-----------3-------------------------------------3----------------------------|

4th time changes a bit
e|----------------------------------------------------------------------------|
B|----------------------1-----------------------------------------------------|
G|----2---0----0---0--------0----4---0-----3---0----3---0-----3---0----3---0--|
D|------2--------2--------2--------2---------2--------2---------2--------2----|
A|--0-----------------3--------2--------1---------1--------1---------1--------|
E|-----------3----------------------------------------------------------------|

then
e|---------------------------------------------------------------------------|
B|----------------------1--------1---3-----------------------1--------1------|
G|----2---0----0---0--------0-------------2---0----0---0---------0--------0--|
D|------2--------2--------2--------2--------2--------2---------2--------2----|x2
A|--0-----------------3--------3--------0------------------3--------3--------|
E|-----------3------------------------------------3--------------------------|

e|--------------------------------------|
B|----------------------1--------1------|
G|----2---0----0---0--------0--------0--|
D|------2--------2--------2--------2----|
A|--0-----------------3--------3--------|
E|-----------3--------------------------|

Chorus

e|------------------------------------------------|
B|------------------------------------------------|
G|--2--2--x-x-x-x----------5--5--x-x-x-x-----x-x--|
D|--2--2--x-x-x-x-5-5-x-x--5--5--x-x-x-x-3-3-x-x--|x6
A|--0--0--x-x-x-x-5-5-x-x--3--3--x-x-x-x-3-3-x-x--|
E|----------------3-3-x-x----------------1-1------|

then
e|-------------------------|
B|-------------------------|
G|--3--3--x-x-x-x-3-3-x-x--|
D|--3--3--x-x-x-x-3-3-x-x--|x2
A|--1--1--x-x-x-x-1-1-x-x--|
E|-------------------------|

e|--------------------------------------------------------|
B|----------------------1--------1---3--------------------|
G|----2---0----0---0--------0-------------2---0----0---0--|
D|------2--------2--------2--------2--------2--------2----|
A|--0-----------------3--------3--------0-----------------|
E|-----------3------------------------------------3-------|

e|---------------------------------------------------------------------------------|
B|------13--------13-------13--------13--------12--------12--------12--------12----|
G|----12--12----12--12---12--12----12--12----12--12----12--12----12--12----12--12--|
D|--14--------14--------14-------14--------14--------14--------14--------14--------|x2
A|---------------------------------------------------------------------------------|
E|---------------------------------------------------------------------------------|

e|----------------------|
B|------11--------11----|
G|----12--12----12--12--|
D|--14--------14--------|x10
A|----------------------|
E|----------------------|

Chorus

e|------------------------------------------------|
B|------------------------------------------------|
G|--2--2--x-x-x-x----------5--5--x-x-x-x-----x-x--|
D|--2--2--x-x-x-x-5-5-x-x--5--5--x-x-x-x-3-3-x-x--|x10
A|--0--0--x-x-x-x-5-5-x-x--3--3--x-x-x-x-3-3-x-x--|
E|----------------3-3-x-x----------------1-1------|

then
e|-------------------------|
B|-------------------------|
G|--3--3--x-x-x-x-3-3-x-x--|
D|--3--3--x-x-x-x-3-3-x-x--|x2
A|--1--1--x-x-x-x-1-1-x-x--|
E|-------------------------|

End on
e|-----|
B|-----|
G|--2--|
D|--2--|
A|--0--|
E|-----|
Related for Soft Rock Star tab