Song name
# A B C D E F G H I J K L M N O P Q R S T U V W X Y Z

Metric - Sick Muse tab

#----------------------------------PLEASE NOTE---------------------------------#
#This file is the author's own work and represents their interpretation of the #
#song. You may only use this file for private study, scholarship, or research. #
#------------------------------------------------------------------------------##


Artist: Metric
Song: Sick Muse
Tabbed by: Manthony
03.04.09



TUNING: (E A D G B E)



CHORD DIAGRAM
------------------------------------------------------------------------

 F#m              D                E                A     
                                  
 2 4 4 2 2 2      x x 0 2 3 2      0 2 2 1 0 0      x 0 2 2 2 0         



------------------------------------------------------------------------



Intro Riffage //


E||----------------|----------------------|------------|--------------------||
B||----------------|----------------------|------------|--------------------||
G||----------------|----------------------|------------|--------------------||
D||-------------4~-|------------4--4-6----|---------4~-|---------4------6/7-||
A||----------------|-------------------7--|-5---4-5----|-5---4-5---5--7-----||
E||-2--5--2--5-----|-2--5--2--5-----------|---5--------|---5----------------||


F#m
Watch out Cupid, stuck me with a sickness
                                               D
Pull your little arrows out and let me live my life
           F#m
You better watch out Cupid, stuck me with a sickness
                                               D
Pull your little arrows out and let me live my life

The one I better lead

All the blondes of Fantasies


       F#m
And we looked at them eleven ways

You said, 'look at me', I looked away
        D
And you wrote the song I wanna play
     E
I'll write you harmony in C


.......................................................................

           A
Everybody, everybody just wanna fall in love
           E
Everybody, everybody just wanna play the lead
           A
Everybody, everybody just wanna fall in love
           E
Everybody, everybody just wanna play the lead

Play the lead

Play the lead



E||---------------------------------------------------------------||
B||---------------------------------------------------------------||
G||---------------------------------------------------------------||
D||-9--7-7-7-7-7-7--9-7-7-7-7-7-7--11--7-7-7-7-7-7--9-7-7-7-7-7-7-||
A||---------------------------------------------------------------||
E||---------------------------------------------------------------||

E||---------------------------------------------------------------||
B||---------------------------------------------------------------||
G||---------------------------------------------------------------||
D||-7--6-6-6-6-6-6--9-6-6-6-6-6-6--11--9-9-9-9-9-9--14-11-9--9/11-||
A||---------------------------------------------------------------||
E||---------------------------------------------------------------||


......................................................................




E||----------------|----------------------|------------|--------------------||
B||----------------|----------------------|------------|--------------------||
G||----------------|----------------------|------------|--------------------||
D||-------------4~-|------------4--4-6----|---------4~-|---------4------6/7-||
A||----------------|-------------------7--|-5---4-5----|-5---4-5---5--7-----||
E||-2--5--2--5-----|-2--5--2--5-----------|---5--------|---5----------------||


F#m
Watch out Cupid, money is a sick muse
                                               D
Pull your little arrows out and let me live my life
          F#m
She said: I'm with stupid. Money is a sick muse
                                               D
Pull your little arrows out and let me live my life

The one I better lead

All the blondes of Fantasies




       F#m
And we looked at them eleven ways

You said, 'look at me', I looked away
        D
And you wrote the song I wanna play
     E
I'll write you harmony in C


.......................................................................

           A
Everybody, everybody just wanna fall in love
           E
Everybody, everybody just wanna play the lead
           A
Everybody, everybody just wanna fall in love
           E
Everybody, everybody just wanna play the lead

Play the lead

Play the lead



E||---------------------------------------------------------------||
B||---------------------------------------------------------------||
G||---------------------------------------------------------------||
D||-9--7-7-7-7-7-7--9-7-7-7-7-7-7--11--7-7-7-7-7-7--9-7-7-7-7-7-7-||
A||---------------------------------------------------------------||
E||---------------------------------------------------------------||

E||---------------------------------------------------------------||
B||---------------------------------------------------------------||
G||---------------------------------------------------------------||
D||-7--6-6-6-6-6-6--9-6-6-6-6-6-6--11--9-9-9-9-9-9--14-11-9--9/11-||
A||---------------------------------------------------------------||
E||---------------------------------------------------------------||


......................................................................



E||----------------|----------------------|------------|--------------------||
B||----------------|----------------------|------------|--------------------||
G||----------------|----------------------|------------|--------------------||
D||-------------4~-|------------4--4-6----|---------4~-|---------4------6/7-||
A||----------------|-------------------7--|-5---4-5----|-5---4-5---5--7-----||
E||-2--5--2--5-----|-2--5--2--5-----------|---5--------|---5----------------||



E
I'll write you harmony in C



.......................................................................

           A
Everybody, everybody just wanna fall in love
           E
Everybody, everybody just wanna play the lead
           A
Everybody, everybody just wanna fall in love
           E
Everybody, everybody just wanna play the lead

Play the lead

Play the lead



E||---------------------------------------------------------------||
B||---------------------------------------------------------------||
G||---------------------------------------------------------------||
D||-9--7-7-7-7-7-7--9-7-7-7-7-7-7--11--7-7-7-7-7-7--9-7-7-7-7-7-7-||
A||---------------------------------------------------------------||
E||---------------------------------------------------------------||

E||---------------------------------------------------------------||
B||---------------------------------------------------------------||
G||---------------------------------------------------------------||
D||-7--6-6-6-6-6-6--9-6-6-6-6-6-6--11--9-9-9-9-9-9--14-11-9--9/11-||
A||---------------------------------------------------------------||
E||---------------------------------------------------------------||


......................................................................




#----------------------------------PLEASE NOTE---------------------------------#
#This file is the author's own work and represents their interpretation of the #
#song. You may only use this file for private study, scholarship, or research. #
#------------------------------------------------------------------------------##



Tap to rate this tab
# A B C D E F G H I J K L M N O P Q R S T U V W X Y Z