Metric - Sick Muse tab

Verse:  F#m - D - F#m - D - F#m - D - E
Chorus: A - E - A - E 

Piano, arranged for Guitar

   Verse
E |------------|-------------|---------------|-------------------- |
B |--------7---|---------7-9-|-------------7-|----------7----9-10- |
G |------------|-------------|-9--7--- 6--7--|----7-6-7--7-9------ |
D |---7--7-----|---7--7------|-----7---------|-7------------------ |
A |-9--9-------|-9--9--------|---------------|-------------------- |
E |------------|-------------|---------------|-------------------- |

   Chorus
E |------------------------------------------------|
B |------------------------------------------------|
G |------------6------------------------6----9-6-6-|
D |-9-7---9-7---7---9-7-9-7-7-6---9-6----9------9--|
A |------------------------------------------------|
E |------------------------------------------------|

   Post Chorus - 2x      1x
E |---------------------|---|
B |---------------------|---|
G |--9----7----7---9--6-|-7-|
D |-----7----9----------|---|
A |---------------------|---|
E |---------------------|---|
Tap to rate this tab
 
# A B C D E F G H I J K L M N O P Q R S T U V W X Y Z