Song name
# A B C D E F G H I J K L M N O P Q R S T U V W X Y Z

Metric - Black Sheep tab

I saw there wasnt a very good tab for this up, so i thought i would give it a shot

Intro:
starts with a slide down, only do it once

E----------------------------------------------|
B----------------------------------------------|
G----------------------------------------------|
D----------------------------------------------|
A-(12/)------7--7---7--7---7---7---7-----------|
E-(12/)----0------0------0---0---0-------------|X4

Verse 1:
  "Hello again..."
E--------------------------------------------------------------------|
B--------------------------------------------------------------------|
G--------------------------------------------------------------------|
D--------------------------------------------------5---5---5---5-----|
A--------------------------------------------------5---5---5---5-----|
E--0---0---0---0---0---0---0---0---0---0---0---0---3---3---3---3-----|X2

   "Now that..."
E--------------------------------------------------------------------|
B--------------------------------------------------------------------|
G--7/9-7--5-4---7/9-7--5-4---7/9-7--5-4------------------------------|
D--------------------------------------------------5---5---5---5-----|
A--------------------------------------------------5---5---5---5-----|
E--------------------------------------------------3---3---3---3-----|

  "You Crack the Whip..."
E--------------------------------------------------------------------|
B--------------------------------------------------------------------|
G--7/9-7--5-4---7/9~-7--5-4---7/9-7--5-4-----------------------------|
D--------------------------------------------------5---5---5---5-----|
A--------------------------------------------------5---5---5---5-----|
E--------------------------------------------------3---3---3---3-----|

(for the the 9~, just hold it for a few more mili seconds)
Chorus:

E------------------------------------------------------|
B---12-12-12-12-12-12-12-12-12-12-12-12-12-12-12-12----|
G---12-12-12-12-12-12-12-12-11-11-11-11-11-11-11-11----|
D------------------------------------------------------|
A------------------------------------------------------|
E------------------------------------------------------|X4

E----------------------------------------------------|
B---------12-------12----12-------12-------12----12--|
G---12-12----12-12----12----11-11----11-11----11-----|
D----------------------------------------------------|
A----------------------------------------------------|
E----------------------------------------------------| X3

E----------------------------------------------------------|
B---------12-------12----12-------12--------12-12-12~------|
G---12-12----12-12----12----11-11----11-11--12-12-11~------|
D----------------------------------------------------------|
A----------------------------------------------------------|
E----------------------------------------------------------|

Intro again:

Guitar 1:
E----------------------------------------------|
B----------------------------------------------|
G----------------------------------------------|
D----------------------------------------------|
A-(12/)------7--7---7--7---7---7---7-----------|
E-(12/)----0------0------0---0---0-------------|X4

Guitar 2:(over it is this part, listen to the song to time it right)
E------------------------------------------------------------|
B--13-12----13-12--13-12--13-12--13-12--13-12--13-12---------|
G--12-11----12-11--12-11--12-11--12-11--12-11--12-11---------|
D------------------------------------------------------------|
A------------------------------------------------------------|
E------------------------------------------------------------|

Verse 2:

    "Got Balls of Steel...."
E--------------------------------------------------------------------|
B--------------------------------------------------------------------|
G--------------------------------------------------------------------|
D--------------------------------------------------5---5---5---5-----|
A--------------------------------------------------5---5---5---5-----|
E--0---0---0---0---0---0---0---0---0---0---0---0---3---3---3---3-----|X2

   "Now that the truth....."
E--------------------------------------------------------------------|
B--------------------------------------------------------------------|
G--7/9-7--5-4---7/9-7--5-4---7/9-7--5-4------------------------------|
D--------------------------------------------------5---5---5---5-----|
A--------------------------------------------------5---5---5---5-----|
E--------------------------------------------------3---3---3---3-----|

   "You crack the whip..."
E--------------------------------------------------------------------|
B--------------------------------------------------------------------|
G--7/9-7--5-4---7/9~-7--5-4---7/9-7--5-4-----------------------------|
D--------------------------------------------------5---5---5---5-----|
A--------------------------------------------------5---5---5---5-----|
E--------------------------------------------------3---3---3---3-----|

(for the the 9~, just hold it for a few more mili seconds)

Chorus 2:

E------------------------------------------------------|
B---12-12-12-12-12-12-12-12-12-12-12-12-12-12-12-12----|
G---12-12-12-12-12-12-12-12-11-11-11-11-11-11-11-11----|
D------------------------------------------------------|
A------------------------------------------------------|
E------------------------------------------------------|X8

E----------------------------------------------------|
B---------12-------12----12-------12-------12----12--|
G---12-12----12-12----12----11-11----11-11----11-----|
D----------------------------------------------------|
A----------------------------------------------------|
E----------------------------------------------------| X7

E--------------------------------------------------------|
B---------12-------12----12-12-12-12-12-12-12-12-12~-----|
G---12-12----12-12----12----11-11-11-11-11-11-11-11~-----|
D--------------------------------------------------------|
A--------------------------------------------------------|
E--------------------------------------------------------|

Solo-

E--------------------------------------------------- | \
B-------10----10/12--12-12~--10-12-10-----------| -- |
G-12-12----12-------------------------12-9~-----| -- |
D-----------------------------------------------| -- |
A-----------------------------------------------| -- |
E-----------------------------------------------| -- |
                                                   |
E-----------------------------------------------|  |
B-------10----10/12--12-12~--15-12-10-----------|  |
G-12~------12-------------------------12\9------|  |
D-----------------------------------------------|  |
A-----------------------------------------------|  |
E-----------------------------------------------|  |
                                                   }X2
E-----------------------------------------------|  |
B-------10----10/12--12-12~--10-12-10-----------|  |
G-12-12----12-------------------------12-9~-----|  |
D-----------------------------------------------|  |
A-----------------------------------------------|  |
E-----------------------------------------------|  |
                                                   |
E----------------------------12-10--------------| -- |
B-------10----10/12--12-12~--------12-10--------| -- |
G-12-12----12----------------------------12-----| -- |
D-----------------------------------------------| -- |
A-----------------------------------------------| -- |
E--------------------------------------------------- |  /

alright so this was my first tab ever, see if you like it, i think there are a few 
problems, just point them out and ill fix them

ask if you want bass tabs
Tap to rate this tab
 
# A B C D E F G H I J K L M N O P Q R S T U V W X Y Z