Song name
# A B C D E F G H I J K L M N O P Q R S T U V W X Y Z

Mew - Introducing Palace Players tab

Introducing Palace Players, by Mew
Tabbed by Donnet GŁemes (phazon_elite24@hotmail.com)


Standard tuning

~ - Let ring
h - hammer on

This is a really fun song to play. Listen to the song for the exact strumming, 
during the chorus and the last bit towards the end.

---------------------------------------------------

Intro 1 of sorts:

(0:00 - 0:55)


e-------------------------|
B-------------------------|
G-------------------------|
D-------7--5-5/7--4-------|
A-------5--7-7/9--5-------|
E--7-7--------------------|


----------------------------------------------

Intro 2 of sorts:

(0:55 - 1:48)

e---------------------------------------------|---------------------------------------------|
B---------------------------------------------|---------------------------------------------|
G---------------------------------------------|---------------------------------------------|
D---0h5---7---------------5--5---5---7--------|---5--5---0~-h5------0---0h5-5---0~-h5----0--|
A-------------5------5-------------------5----|---------------------------------------------|
E-7-----7---7----7-----7-------7---7---7----7-|-3------3---3----3-----3-------3---3----3----|


e---------------------------------------------|------------------------------------------|
B---------------------------------------------|------------------------------------------|
G---------------------------------------------|-------------------------------4----------|
D---0h5---7--------------5--5---5---7---------|---5h7---7---0------0----5h7-------0------|
A-------------5------5------------------5-----|-4-----4---4----4-----4------4---4----4---|
E-7-----7---7----7-----7------7---7---7-------|------------------------------------------|


e------------------------------------------|----------------------------------------------|
B------------------------------------------|----------------------------------------------|
G------------------------------------------|----------------------------------------------|
D---0h5---7--------------5--5---5---7---4--|----5--5---0~-h5------0---0h5--5---0~-h5------|
A-------------5------5---------------------|----------------------------------------------|
E-7-----7---7----7-----7------7---7---7----|--3------3---3-----3----3--------3---3---3----|

e------------------------------------------------|
B------------------------------------------------|
G------------------------------------------------|
D-0----2-2/4--0-2--------0---2-2/4-0-----2-2p0---|
A------------------------------------------------|
E---0-------------2--2-----0---------2p0---------|

e-------------------------------------------|------------------------------------------|
B-------------------------------------------|------------------------------------------|
G-------------------------------------------|------------------------------------------|
D---0h5---7--------------5--5---5---4-------|---0h5---5---0h5-----0~h5-5---0~--5-------|
A-------------5------5-----------------7\5--|------------------------------------------|
E-7-----7---7----7-----7------7---7---------|-3-----3---3------3---3-----3---3-----3---|

e------------------------------------------------|
B------------------------------------------------|
G------------------------------------------------|
D-0----2-2/4--0-2--------0---2-2/4-0-----2-2p0---|
A------------------------------------------------|
E---0-------------2--2-----0---------2p0---------|


---------------------------------------------------------

Verse 1:

(1:48 - 2:19)


e---------------------------------------------|-------------------------------------------|
B---------------------------------------------|-------------------------------------------|
G---------------------------------------------|-------------------------------------------|
D---0h5---7---------------5--5---5---7--------|---0h5---5---0h5-----0-----5-5---0~--5-----|
A-------------5------5-------------------5----|-------------------------------------------|
E-7-----7---7----7-----7-------7---7---7----7-|-3------3---3----3-----3-------3---3----3--|

e------------------------------------------------|
B------------------------------------------------|
G------------------------------------------------|
D-0----2-2/4--0-2--------0---2-2/4-0-----2-2p0---|
A------------------------------------------------|
E---0-------------2--2-----0---------2p0---------|

e-------------------------------------------|------------------------------------------|
B-------------------------------------------|------------------------------------------|
G-------------------------------------------|------------------------------------------|
D---0h5---7--------------5--5---5---4-------|---0h5---5---0h5-----0--5-5---0~--5-------|
A-------------5------5-----------------7\5--|------------------------------------------|
E-7-----7---7----7-----7------7---7---------|-3-----3---3------3---3-----3---3-----3---|

e---------------------------------------------------|
B---------------------------------------------------|
G---------------------------------------------------|
D-0----2-2/4--0-2--------0---2-2/4-0-----2-2p0------|
A---------------------------------------------------|
E---0-------------2--2-----0---------2p0-------7-7--|

------------------------------------------------------

Chorus (x2):

(2:19 - 2:39)


e------------------------------------------------------------------------------|
B------------------------------------------------------------------------------|
G------------------------------------------------------------------------------|
D-----------4444-7777-4---------4444-7777------5-7-5-------7----9----4---------|
A-----------------------------------------7\5--------7----------------555------|
E-7--777777--------------777-77--------------------------55---77---22----------|


------------------------------------------------------------

2nd Verse:

(2:39 - 3:12)

e------------------------------------------|---------------------------------------------|
B------------------------------------------|---------------------------------------------|
G------------------------------------------|---------------------------------------------|
D---0h5---7--------------5--5---5---7---4--|----5--5---0~-h5------0----5--5---0~-h5------|
A-------------5------5---------------------|---------------------------------------------|
E-7-----7---7----7-----7------7---7---7----|--3------3---3-----3----3-------3---3---3----|

e------------------------------------------------|
B------------------------------------------------|
G------------------------------------------------|
D-0----2-2/4--0-2--------0---2-2/4-0-----2-2p0---|
A------------------------------------------------|
E---0-------------2--2-----0---------2p0---------|

e-------------------------------------------|------------------------------------------|
B-------------------------------------------|------------------------------------------|
G-------------------------------------------|------------------------------------------|
D---0h5---7--------------5--5---5---4-------|---0h5---5---0h5-----0--5-5---0~--5-------|
A-------------5------5-----------------7\5--|------------------------------------------|
E-7-----7---7----7-----7------7---7---------|-3-----3---3------3---3-----3---3-----3---|

e---------------------------------------------------|
B---------------------------------------------------|
G---------------------------------------------------|
D-0----2-2/4--0-2--------0---2-2/4-0-----2-2p0------|
A---------------------------------------------------|
E---0-------------2--2-----0---------2p0-------7-7--|


--------------------------------------------------------------

Chorus (x4):

(3:12 - 3:52)


e------------------------------------------------------------------------------|
B------------------------------------------------------------------------------|
G------------------------------------------------------------------------------|
D-----------4444-7777-4---------4444-7777------5-7-5-------7----9----4---------|
A-----------------------------------------7\5--------7----------------555------|
E-7--777777--------------777-77--------------------------55---77---22----------|

-----------------------------------------------------------

Last bit:

(3:52 - 4:47 (end))


  F#5        A5       G5      F#5   A5  C#5         G5
e-------------------------------------------------------------------|
B-------------------------------------------------------------------|
G-------------------------------------------------------------------|
D-4-4-444\---7-7-7\---5-5-5\--4-4-4-7-7/11-11-11\---5-5-5\----------|
A-4-4-444\---7-7-7\---5-5-5\--4-4-4-7-7/11-11-11\---5-5-5\----------|
E-2-2-222\---5-5-5\---3-3-3\--2-2-2-5-5/9--9--9-\---3-3-3\----------|

F#5            B5
   But if you go,
A5
Lots of different reasons,
G5
Does that mean you can't even come?
F#5                A5
   You think this way,
C#5
Jumping off the see-saw,
G5
Company is just wanting to be...


F#5            A5
   But if you go,
C#5
Lots of different reasons,
G5
Does that mean you can't even come?
F#5                   B5
   You think this way,
A5
Jumping off the see-saw,
G5
  Company is just wanting to be...


F#5 B5 A5
Tap to rate this tab
 
# A B C D E F G H I J K L M N O P Q R S T U V W X Y Z