Song name
# A B C D E F G H I J K L M N O P Q R S T U V W X Y Z

Mgmt - Kids tab

Kids riff and bass lines. Should be 100% correct as I wrote the tabs myself. First tab

   Intro/Riff
e------------2--4--2-------|
B-------2--5---------5--2--|
G--2--4-------------------2|
D--------------------------|
A--------------------------|
E--------------------------|

   Bass Lines

e-------------------------------------------------|
B-------------------------------------------------|
G-------------0-0-0-0-----------------------------|
D------------0-0-0-0---0-0-0-0---0-0-0-0---0-0-0-0|
A---4-4-4-4-----------0-0-0-0---------------------|
E--2-2-2-2----------------------4-4-4-4---3-3-3-3-|

 Repeats throughout the whole song.

Hope the tab was helpful, and it was my first tab so there may be a few errors.
Tap to rate this tab
# A B C D E F G H I J K L M N O P Q R S T U V W X Y Z