Song name
# A B C D E F G H I J K L M N O P Q R S T U V W X Y Z

Michael Buble - Cry Me A River tab

Either....
e|----------------------------------------------------------|
B|----------------------------------------------------------|
G|----------------------------------------------------------|
D|----------------------------------------------------------|
A|-------5--6---------5--6---------5--6-----5--6-----5------|
E|8--8---------8--8----------4--8--------4--------4-----8---|
or...
e|-----------------------------------------------------------|
B|0--0---2--3--0--0---2--3---------0--2--3-----2--3-----2---0|
G|---------------------------0--0-----------0--------0-------|
D|-----------------------------------------------------------|
A|-----------------------------------------------------------|
E|-----------------------------------------------------------|

This is my first tab but it seems correct. Enjoy!
Chris
Tap to rate this tab
 
# A B C D E F G H I J K L M N O P Q R S T U V W X Y Z