Song name
# A B C D E F G H I J K L M N O P Q R S T U V W X Y Z

Michael Buble - Cry Me A River tab

Michael Buble - Cry Me A River

This is my first tab, hope its okay!

Just the main riff Im afraid, when I work out the rest of it, youll be the first to know!!

Any probs, email me at harrisonbodnar@hotmail.co.uk

Thanks and enjoy!

STANDARD TUNING

e|---------------------------------------------------------------------------|
B|---------------------------------------------------------------------------|
G|---------------------------------------------------------------------------|
D|---------------------------------------------------------------------------|
A|----5--------5---7---8---5-----------5---7---8-----------------------------|
E|---------------------------------------------------6-----------------------|

e|---------------------------------------------------------------------------|
B|---------------------------------------------------------------------------|
G|---------------------------------------------------------------------------|
D|---------------------------------------------------------------------------|
A|-----------5--7--8-----7--8-------7---5------------------------------------|
E|-----6--------------6--------6---------------------------------------------|
Tap to rate this tab
# A B C D E F G H I J K L M N O P Q R S T U V W X Y Z