Song name
# A B C D E F G H I J K L M N O P Q R S T U V W X Y Z

Michael Jackson - Billie Jean Acoustic tab

  MICHAEL JACKSON –BILLIE JEAN-FURKAN ARASLI    
       e|------------------------------------------------------|
       B|------------------------------------------------------|
       G|------------------------------------------------------|
       D|---4------4-------------------------------------------|
       A|-----4--7---7--4---4----------------------------------|
       E|-----------------7------------------------------------|
DO IT ABOUT 17 TIMES

       e|------------------------------------------------------|
       B|------------------------------------------------------|
       G|---4------4-------------------------------------------|
       D|-----4--7---7--4---4----------------------------------|
       A|-----------------7------------------------------------|
       E|------------------------------------------------------|

                    17*times 
Tap to rate this tab
 
# A B C D E F G H I J K L M N O P Q R S T U V W X Y Z