Michael Jackson - Pyt Pretty Young Thing tab

Im not too sure what song but sounds good!!! <3 :)
By Anacckandah

E----------5---7---------7-|--------------------------|--8--------8--2-----|
B--------5--------5--------|--------------------------|----5------------3--|
C------5------------5------|---------3--3---------3--3|------5-------2-----|
D----7---------6-----------|---------4--4---------4--4|--5-----4-----------|
A--------------------------|---4--4--2--2---4--4--2--2|--------------------|
E--------------------------|---2--2--4--4---2--2--4--4|--------------------|

E--------3--------3---------3---|-5----------------------------------------|
B--------3--------3------------4|-3-----3--5--3-----------7-----8----------|
C-----4--------4----------------|-4--------------0--------7-----7----------|
D--2--------5---------------0---|----3--------------4-----5-----5----------|
A--2--------5-------------------|-------------------------5-----5----------|
E--2--------5--------0--5-------|-------------------------5-----5----------|
Tap to rate this tab
 
# A B C D E F G H I J K L M N O P Q R S T U V W X Y Z