Song name
# A B C D E F G H I J K L M N O P Q R S T U V W X Y Z

Michael Schenker Group - Arachnophobiac tab

-------------------------------------------------------------------------------
			     ARACHNOPHOBIAC - MICHAEL SCHENKER GROUP
-------------------------------------------------------------------------------
Tabbed by:JJRAM33                  2009 MICHAEL SCHENKER'S GREATEST RIFF'S
Email:cs-johnston@sbcglobal.net          2003 MSG ARACHNOPHOBIAC

Tuning:STANDARD

fig.1 intro riff  guitar 1
e|----------------------------------------------------------------------|
B|----------------------------------------------------------------------|
G|------------------1/4----------------------------1/4------------------|
D|------------------3b------(0)--------------------3b-------------------|
A|----5-4-3-2-1----3-----0-3------ --5-4-3-2-1----3---------------------|
E|-------------------------------------------------------0--1--3--------|

e|----------------------------------------------------------------------|
B|----------------------------------------------------------------------|
G|------------------1/4---------------2-------3p2-----------------------|
D|------------------3b-------------2-----------------------reapeat x 1--|
A|----5-4-3-2-1----3------0-3--0----------4---------5p4-----------------|
E|----------------------------------------------------------------------|

fig.2 verse  1   guitar 1 & 2
        One   lonely  spider           creepy  crawlin  up my  wall
e|----------------------------------------------------------------------|
B|----------------------------------------------------------------------|
G|---7--7--x-x-----5--5--x-x-----7--7--x-x------9/10----9---------------|
D|---7--7--x-x-x---5--5--x-x-x---7--7--x-x-x----9/10----9---------------|
A|---5--5--x-x-x---3--3--x-x-x---5--5--x-x-x----7/8-----7---------------|
E|----------------------------------------------------------------------|
     Two more inside  of  my shoe         I found his friends in my bed

e|----------------------------------------------------------------------|
B|----------------------------------------------------------------------|
G|----7--7--x-x----5--5------3--------3-/5----7--7--x-x-----5--5-x-x----|
D|----7--7--x-x-x--5--5--x---1--------1-/5----7--7--x-x-x---5--5-x-x-x--|
A|----5--5--x-x-x--3--3--x---1--------1-/3----5--5--x-x-x---3--3-x-x-x--|
E|----------------------------------------------------------------------|
   in the night there crawlin on my head  what am I supposed to do
e|----------------------------------------------------------------------|
B|----------------------------------------------------------------------|
G|---7--7--x-x-----9/10----9-----------3--------------------5-5-5-------|
D|---7--7--x-x-x---9/10----9-----------1--------------------5-5-5-------|
A|---5--5--x-x-x---7/8-----7-----------1--------------------3-3-3-------|
E|----------------------------------------------------------------------|

fig.3chorus
  gtr1                                 This     is     an     infestation
e|-----------------------------------------------------------------------|
B|-----------------------------------------------------------------------|
G----10--10---x-x----9--9---x--x---10--10---x--x------12----12-----------|
D|------------x-x-----------x--x------------x--x-------------------------|
A|----8--8----x-x----7--7---x--x----8--8----x--x------10----10-----------|
E|-----------------------------------------------------------------------|
gtr 2
e|-----------------------------------------------------------------------|
B|-----------------------------------------------------------------------|
G|---10--10--x-x----5--5-----x-x-----7--7----x--x------8-----8-----------|
D|---10--10--x-x----5--5-----x-x-----7--7----x--x------8-----8-----------|
A|---8---8---x-x----3--3-----x-x-----5--5----x--x------6-----6-----------|
E|-----------------------------------------------------------------------|
gtr1                                Changin   the   sheets  wont    do
e|-----------------------------------------------------------------------|
B|-----------------------------------------------------------------------|
G|----10--10---x-x----9--9-----x--x---10--10---x--x---12-12---12-12------|
D|-------------x-x-------------x--x------------x--x----------------------|
A|----8--8-----x-x----7--7-----x--x-----8--8---x--x---10-10---10-10------|
E|-----------------------------------------------------------------------|
gtr2
e|-------------------------------------------------------------------------|
B|-------------------------------------------------------------------------|
G|-----10--10--x-x----5--5-----x-x-----7--7----x--x-----8-8------8-8-------|
D|-----10--10--x-x----5--5-----x-x-----7--7----x---x----8-8------8-8-------|
A|-----8---8---x-x----3--3-----x-x-----5--5----x--x-----6-6------6-6-------|
E|-------------------------------------------------------------------------|
  gtr1                            it     needs     a        fumigation
e|-----------------------------------------------------------------------|
B|-----------------------------------------------------------------------|
G|-----10--10---x-x----9--9-----x--x---10--10---x--x-----12----12--------|
D|--------------x-x-------------x--x------------x--x---------------------|
A|-----8--8-----x-x----7--7-----x--x-----8--8---x--x------10----10-------|
E|-----------------------------------------------------------------------|
 gtr2
e|-----------------------------------------------------------------------|
B|-----------------------------------------------------------------------|
G|----10--10--x-x----5--5-----x-x-----7--7----x--x-------8-----8---------|
D|----10--10--x-x----5--5-----x-x-----7--7----x--x-------8-----8---------|
A|----8---8---x-x----3--3-----x-x-----5--5----x--x-------6-----6---------|
E|-----------------------------------------------------------------------|
 gtr1                             and i dont wanna be there when they come out
e|--------------------------------------------------------------------------|
B|--------------------------------------------------------------------------|
G|--------10--10---x-x----9--9-----x--x---10--10---x--x----12-12---12-12----|
D|-----------------x-x-------------x--x------------x--x---------------------|
A|--------8--8-----x-x----7--7-----x--x-----8--8---x--x-----10-10---10-10---|
E|--------------------------------------------------------------------------|
gtr2
e|--------------------------------------------------------------------------|
B|--------------------------------------------------------------------------|
G|---10--10---x-x----5--5-----x-x-----7--7----x--x-----8-8------8-8---------|
D|---10--10---x-x----5--5-----x-x-----7--7----x--x-----8-8------8-8---------|
A|---8---8----x-x----3--3-----x-x-----5--5----x--x-----6-6------6-6---------|
E|--------------------------------------------------------------------------|
gtr 1 & 2
e|------------------------------------------------------------------------|
B|------------------------------------------------------------------------|
G|----7--7--x-x-----5--5--x-x-----7--7--x-x------9/10----9----------------|
D|----7--7--x-x-x---5--5--x-x-x---7--7--x-x-x-=--9/10----9----------------|
A|----5--5--x-x-x---3--3--x-x-x---5--5--x-x-x----7/8-----7----------------|
E|------------------------------------------------------------------------|
 gtr 1 & 2
e|----------------------------------------------------------------------|
B|----------------------------------------------------------------------|
G|---7--7--x-x----5--5------3--------3-/5-------------------------------|
D|---7--7--x-x-x--5--5--x---1--------1-/5-------------------------------|
A|---5--5--x-x-x--3--3--x---1--------1-/3-------------------------------|
E|----------------------------------------------------------------------|

fig 2 verse 2

too many spiders
creepy crawlin on my walls
dont like to stay here alone

i see a big old sticky web
in the shower  right overhead
i just need to go back home

fig 1
chorus fig 3
Solo
repeat vers 1 fig 2
chorus fig 3

| ( ) ghost note
| /  slide up
| \  slide down
| h  hammer-on
| p  pull-off
| ~  vibrato
| +  harmonic
| x  Mute note
===============================================================================
Tap to rate this tab
# A B C D E F G H I J K L M N O P Q R S T U V W X Y Z