Song name
# A B C D E F G H I J K L M N O P Q R S T U V W X Y Z

Michael Schenker - Looking For Love tab

-------------------------------------------------------------------------------
		LOOKING FOR LOVE - Michael Schenker Group
-------------------------------------------------------------------------------
MSG
Looking For Love
From: MSG (1981)
Tabbed by: malpka
Tuning: Standard


INTRO:
[FIG: 1]
e|------------------------------|------------------------------|
B|------------------------------|------------------------------|
G|------------------------------|------------------------------|
D|------------------------------|------------------------------|
A|--2-------------2-------------|--2-------------2-------------|
E|--0-0-0--0-0-0--0-0-0--0-0-0--|--0-0-0--0-0-0--0-0-0--0-0-0--|

e|------------------------------|------------------------------|
B|------------------------------|------------------------------|
G|------------------------------|-----------------7-----7------|
D|------------------------------|-----------------7-----7------|
A|--2-------------2-------------|--2--------------5-----5------|
E|--0-0-0--0-0-0--0-0-0--0-0-0--|--0-0-0--0-0-0----------------|

[FIG: 2]
e|------------------------------|------------------------------|
B|------------------------------|------------------------------|
G|--9---9---------9---9---------|--9---9----------7-----7------|
D|--9---9---------9---9---------|--9---9----------7-----7------|
A|--7---7---------7---7---------|--7---7----------5-----5------|
E|---------0-0-0---------0-0-0--|---------0-0-0----------------|

e|------------------------------|------------------------------|
B|------------------------------|------------------------------|
G|--9---9---------9---9---------|--9\--------------------------|
D|--9---9---------9---9---------|--9\--------------------------|
A|--7---7---------7---7---------|--7\-------------2-3-2--------|
E|---------0-0-0---------0-0-0--|-----------------------5-3-2--|

VERSE:
[FIG: 3]
  Don't give me reasons when I know for sure
e|------------------------------|------------------------------|
B|------------------------------|------------------------------|
G|--9---------------------------|--5--------------7------------|
D|--9---------------------------|--5--------------7------------|
A|--7---------------------------|--3--------------5------------|
E|--0---------------------------|------------------------------|

e|------------------------------|------------------------------|
B|------------------------------|------------------------------|
G|--9---------------------------|--5--5-----------4--4---------|
D|--9---------------------------|--5--5-----------4--4---------|
A|--7---------------------------|--3--3-----------2--2---------|
E|--0---------------------------|------------------------------|

  Cause I knew the answers before I had to go
e|------------------------------|------------------------------|
B|------------------------------|------------------------------|
G|--9---------------------------|--5--------------7------------|
D|--9---------------------------|--5--------------7------------|
A|--7---------------------------|--3--------------5------------|
E|--0---------------------------|------------------------------|

e|------------------------------|------------------------------|
B|------------------------------|------------------------------|
G|------------------------------|--4-------------4-----4-------|
D|--5---------------------------|--4-------------4-----4-------|
A|--5---------------------------|--2-------------0-----2-------|
E|--3---------------------------|------------------------------|

PRE-CHORUS:
[FIG: 4]
  Don't say I'm just wasting my time
e|------------------------------|------------------------------|
B|------------------------------|------------------------------|
G|---------5------------7-------|---------9------------9-------|
D|---------5------------7-------|---------9------------9-------|
A|--3--3---3-----5--5---5-------|---------7------------7-------|
E|------------------------------|--0--0---------0--0-----------|

  What kind of friend would you be
e|------------------------------|------------------------------|
B|------------------------------|------------------------------|
G|---------5------------7-------|---------------4--------------|
D|---------5------------7-------|--5------------4--------------|
A|--3--3---3-----5--5---5-------|--5------------2--------------|
E|------------------------------|--3---------------------------|

  Cause you know that better than I
e|------------------------------|------------------------------|
B|------------------------------|------------------------------|
G|---------5------------7-------|---------------9------7-------|
D|---------5------------7-------|--2------------9------7-------|
A|--3--3---3-----5--5---5-------|--2------------7------5-------|
E|------------------------------|--0---------------------------|


e|------------------------------|------------------------------|
B|------------------------------|------------------------------|
G|--5---------------------------|--4---------------------------|
D|--5---------------------------|--4---------------------------|
A|--3---------------------------|--2--------------2-3-2--------|
E|------------------------------|-----------------------5-3-2--|

VERSE:
[FIG: 3]
Hand me a friendship that puts me to the test
Then you wouldn't be any better than all the rest


PRE-CHORUS:
[FIG: 4]
Don't say I'm wasting my time
What kind of friend would you be
Cause you know that better than I


CHORUS:
[FIG: 5]
  I'm looking for love           Looking for a friend
e|------------------------------|------------------------------|
B|------------------------------|------------------------------|
G|--9-------------7-------------|--7-------------9-------------|
D|--9-------------7-------------|--7-------------9-------------|
A|--7-------------5-------------|--5-------------7---------x\--|
E|------------------------------|--------------------------x\--|

  Looking for love in the end
e|------------------------------|------------------------------|
B|------------------------------|------------------------------|
G|--9-------------7----------5--|-(5)------------7--7----------|
D|--9-------------7----------5--|-(5)------------7--7----------|
A|--7-------------5----------3--|-(3)------------5--5----------|
E|------------------------------|------------------------------|

  I'm looking for love           You gonna be my friend
e|------------------------------|------------------------------|
B|------------------------------|------------------------------|
G|--9-------------7-------------|--7-------------9-------------|
D|--9-------------7-------------|--7-------------9-------------|
A|--7-------------5-------------|--5-------------7-------------|
E|------------------------------|------------------------------|

  Looking for love in the end
e|------------------------------|------------------------------|
B|------------------------------|------------------------------|
G|--9-------------7----------5--|-(5)--------------------------|
D|--9-------------7----------5--|-(5)--------------------------|
A|--7-------------5----------3--|-(3)--------------------------|
E|------------------------------|------------------------------|


BRIDGE:
[FIG: 6]
e|------------------------------|------------------------------|
B|-/12---10---8---10~~-7--------|------8---7-------------------|
G|-------------------------7~~~-|--7-----------9~~~~~\---------|
D|------------------------------|------------------------------|
A|------------------------------|------------------------------|
E|------------------------------|------------------------------|
 |                              |                              |
e|------------------------------|------------------------------|
B|------------------------------|------------------------------|
G|--9-------------7-------------|--7-------------9-------------|
D|--9-------------7-------------|--7-------------9-------------|
A|--7-------------5-------------|--5-------------7-------------|
E|------------------------------|------------------------------|

e|------------------------------|------------------------------|
B|------------------------------|------------------------------|
G|--/5----4-------4~~-----------|------------------------------|
D|------------7--------5--------|-----/5---4---2~~~~-----------|
A|-------------------------7~~--|--5~--------------------------|
E|------------------------------|------------------------------|
 |                              |                              |
e|------------------------------|------------------------------|
B|------------------------------|------------------------------|
G|--5-------------9-------------|--7-------------9-------------|
D|--5-------------9-------------|--7-------------9-------------|
A|--3-------------7-------------|--5-------------7-------------|
E|------------------------------|------------------------------|


e|------------------------------|------------------------------|
B|-/12--10h12p10-8--10~~-7------|------/8--7-------------------|
G|-------------------------7~~~-|--7-----------9~~~~~----------|
D|------------------------------|------------------------------|
A|------------------------------|------------------------------|
E|------------------------------|------------------------------|
 |                              |                              |
e|------------------------------|------------------------------|
B|------------------------------|------------------------------|
G|--9-------------7-------------|--7-------------9-------------|
D|--9-------------7-------------|--7-------------9-------------|
A|--7-------------5-------------|--5-------------7-------------|
E|------------------------------|------------------------------|

e|------------------------------|------------------------------|
B|------------------------------|------------------------------|
G|--/5----4-------4~~-----------|------------------------------|
D|------------7--------5--------|-----/5---4---2~~~~-----------|
A|-------------------------7~~--|--5~--------------------------|
E|------------------------------|------------------------------|
 |                              |                              |
e|------------------------------|--0---------------------------|
B|------------------------------|--0---------------------------|
G|--5-------------9-------------|--0---------------------------|
D|--5-------------9-------------|--2---------------------------|
A|--3-------------7-------------|--2---------------------------|
E|------------------------------|--0---------------------------|


SOLO:
[FIG: 6]
e|------12h15p12--12-12h15p12--12h15p12--12-|------------------------------------------|
B|-15b----------15-----------15--------15---|---12h15p12--12---------------------------|
G|------------------------------------------|-15--------15--15-14-12--14--12-----------|
D|------------------------------------------|-----------------------14--14--14p12------|
A|------------------------------------------|------------------------------------14-12\|
E|------------------------------------------|------------------------------------------|

e|------------------------------|------------------------------|
B|------------------------------|------------------------------|
G|---------------------x--------|------------------------------|
D|---------------------x--7b~~--|-(7)r------7p5--7b~~~~--------|
A|--x---------------------------|------------------------------|
E|--x--3b~~~--------------------|------------------------------|


e|--12------------14------------|--14------------15------------|
B|--15b-----------17b~~~~~~-----|--17b-----------18b-----------|
G|------------------------------|------------------------------|
D|------------------------------|------------------------------|
A|------------------------------|------------------------------|
E|------------------------------|------------------------------|

e|----22b24--------22b24~~~~~---|--22b24--22--17--15-----------|
B|---x--------------------------|--------------------17--15----|
G|--x---------------------------|---------------------------16-|
D|------------------------------|------------------------------|
A|------------------------------|------------------------------|
E|------------------------------|------------------------------|


e|------------------------------|------------------------------|
B|------------------------------|------------------------------|
G|-14b16--12--------------------|------------------------------|
D|----------14-12---------------|------------------------------|
A|---------------14-12b-12-10---|------------------------------|
E|---------------------------12-|--10~~~~~~--------------------|


VERSE:
[FIG: 3]
Always unfeeling and sometimes oh so cold
The voice of my anger rings loud, so I'm told


PRE-CHORUS:
[FIG: 4]
Don't say I'm wasting my time
What kind of friend would you be
Cause you know that better than I


CHORUS:
[FIG: 5]
I'm looking for love
Looking for a friend
Looking for love in the end

I'm looking for love
You gonna be my friend
Looking for love in the end


BRIDGE:
[FIG: 6]


OUTRO SOLO:
[FIG: 6]




| /  slide up
| \  slide down
| h  hammer-on
| p  pull-off
| ~  vibrato
| +  harmonic
| x  Mute note
===============================================================================
Tap to rate this tab
# A B C D E F G H I J K L M N O P Q R S T U V W X Y Z