Song name
# A B C D E F G H I J K L M N O P Q R S T U V W X Y Z

Michael Schenker - Open Gate tab

--------------------------------------------------------------------------
			    Open Gate-Michael Schenker
--------------------------------------------------------------------------
Tabbed by:John Davis
Email:Redwood237@yahoo.com

Tuning:Standard

e|-----------------------------------------------------------------------|
B|---10-12-13-12h-13p-12p-10---------------------------------------------|
G|-9--------------------------9-10-9h-10p-9p-7----7----------------------|
D|---------------------------------------------10---10-9-7---------------|
A|-----------------------------------------------------------------------|
E|-----------------------------------------------------------------------|

e|-----------------------------------------------------------------------|
B|---10-12-13-12h-13p-12p-10---------------------------------------------|
G|-9--------------------------9-10-9h-10p-9p-7---------------------------|
D|---------------------------------------------10----10-9----------------|
A|-----------------------------------------------------------------------|
E|-----------------------------------------------------------------------|
             repeat 4x's 4th time dont play last note
e|-----------------------------------------------------------------------|
B|-----------------------------------------------------------------------|
G|------------5b--5-4h-5p-4---------5------------------------------------|
D|----7-7-5-7---7-----------7-5---5---7----------------------------------|
A|------------------------------7----------------------------------------|
E|-----------------------------------------------------------------------|

e|-----------------------------------------------------12-10-10--8-------|
B|------------------------13-12h-13p-12-------------13-------13b-11b-----|
G|------14-12-14-12-12-14---------------14-------14----------------------|
D|-----------------------------------------14-14-------------------------|
A|-----------------------------------------------------------------------|
E|-----------------------------------------------------------------------|

e|-----------------------------------------------------------------------|
B|-------12-13-12h-13p-12-------------------12-13-12-12-13-15b-15-13-12--|
G|14---14-----------------14-12-14p-12---14---------------------------14-|
D|-------------------------------------14--------------------------------|
A|-----------------------------------------------------------------------|
E|-----------------------------------------------------------------------|

Thats all i got for now sorry for putting half way done tabs it jsut takes me a while to 
them all out.


************************************

| /   slide up
| \   slide down
| h   hammer-on
| p   pull-off
| ~   vibrato
| +   harmonic
| x   Mute note
| b   Bend
| pb  Pre-bend
| br  Bend release
| pbr Pre-bend release
| brb Bend release bend

************************************
Tap to rate this tab
 
# A B C D E F G H I J K L M N O P Q R S T U V W X Y Z