Song name
# A B C D E F G H I J K L M N O P Q R S T U V W X Y Z

Michael Schenker - Assault Attack tab

Help us improve GuitareTab! Take a short survey!
-------------------------------------------------------------------------------
			ASSAULT ATTACK - Michael Schenker Group
-------------------------------------------------------------------------------
MSG
Assault Attack
From: Assault Attack (1982)

Tabbed by: malpka

Tuning: Standard

INTRO:
[FIG: 1]
e|------------------------|------------------------|
B|------------------------|------------------------|
G|------------------------|------------------------|
D|------------------------|------------------------|
A|----7-7-7~---5-5--4-----|-3--3---2~--------------|
E|--------------------5p0-|------------------------|
 |                        |                        |
e|------------------------|------------------------|
B|------------------------|------------------------|
G|------------------------|------------------------|
D|----5-5-5~---5-5--4-----|-5--5---4~--------------|
A|--------------------5---|------------------------|
E|----------------------0-|------------------------|
 |                        |                        |
e|------------------------|------------------------|
B|------------------------|------------------------|
G|----4-4-4~---4-4--2-----|-4--4---2~--------------|
D|--------------------4-2-|------------------------|
A|------------------------|------------------------|
E|------------------------|------------------------|

VERSE 1:
[FIG: 2]
 You put me down           That's what I said
e|------------------------|------------------------|
B|------------------------|------------------------|
G|------------------------|------------------------|
D|------------------------|------------------------|
A|-2-2-2-2----2-4-4-4~----|-2-2-2-2----2-4-4-4-5~--|
E|-0-3-3-3----0-5-5-5~----|-0-3-3-3----0-5-5-5-7~--|

 I hit the ground and you   kick me in the head
e|------------------------|------------------------|
B|------------------------|------------------------|
G|------------------------|------------------------|
D|------------------------|------------------------|
A|-2-2-2-2----2-4-4-4~----|-2-2-2-2----2-4-4-2-5-5-|
E|-0-3-3-3----0-5-5-5~----|-0-3-3-3----0-5-5-0-7-7-|

  Ain't that a strange thing for you to do
e|------------------------|------------------------|
B|------------------------|------------------------|
G|------------------------|------------------------|
D|------------------------|------------------------|
A|-2-2-2-2----2-4-4-4~----|-2-2-2-2----2-4-4-4-5~--|
E|-0-3-3-3----0-5-5-5~----|-0-3-3-3----0-5-5-5-7~--|

  I'm better gettin' out to get away from you
e|------------------------|------------------------|
B|------------------------|------------------------|
G|------------------------|------------------------|
D|------------------------|------------------------|
A|-2-2-2-2----2-4-4-4~----|-2-2-2-2----2-4-4-2-5-5-|
E|-0-3-3-3----0-5-5-5~----|-0-3-3-3----0-5-5-0-7-7-|

VERSE 2:
[FIG: 2]
I don't need this, You don't need that
I wonder when you're gonna get up off my back
You better keep me just while you may
You better stick 'round or get out of my way

CHORUS 1:
[FIG: 3]
       Why don't you want me
e|------------------------|------------------------|
B|------------------------|------------------------|
G|--5---------------------|-(5)--------------------|
D|--5---------------------|-(5)--------------------|
A|--3---------------------|-(3)--------------------|
E|------------------------|------------------------|

     You cannot know
e|------------------------|------------------------|
B|------------------------|------------------------|
G|--4---------------------|------------------------|
D|--4---------------------|------------------------|
A|--2---------------------|---------------------2--|
E|------------------3--2--|-0-------------0--3-----|

           Why            love me
e|------------------------|------------------------|
B|------------------------|------------------------|
G|--5---------------------|-(5)--------------------|
D|--5---------------------|-(5)--------------------|
A|--3---------------------|-(3)--------------------|
E|------------------------|------------------------|

                  then      go
e|-{+12                  -|-     +12+12  +12+12  }-|
B|-{+12                  -|-          +12     +12}-|
G|-4-----------------4----|--7---------------------|
D|-4-----------------4----|--7---------------------|
A|-2-----------------2----|--5-----------{      2}-|
E|------------------------|--------------{0  3   }-|


VERSE 2:
[FIG: 2]
Just straighten out Your head and mind
Forget about the things that Made you draw the line
Don't wanna take All that you do
Can't have much more of this What are you tryin' to do

CHORUS 2:
[FIG: 3]

INTRO to INTERLUDE:
[FIG: 1]


INTERLUDE:
[FIG: 4]
e|------------------7------7------|-12------12------12------12-----|--------------------------------|
B|---8------8---------8------8----|---13------13------13------13---|-10------10-------7------7------|
G|-----9------9---------9------9--|-----12------12------12------12-|---11------11-------8------8----|
D|-------9------9-----------------|--------------------------------|-----10------10-------7------7--|
A|--------------------------------|--------------------------------|--------------------------------|
E|--------------------------------|--------------------------------|--------------------------------|
 |                                |                                |                                |
e|-----------------12------12-----|-15------15------15------15-----|--------------------------------|
B|-12------12--------12------12---|---17------17------17------17---|-13------13------10------10-----|
G|---12------12--------12------12-|-----17------17------17------17-|---14------14------11------11---|
D|-----14------14-----------------|--------------------------------|-----16------16------13------13-|
A|--------------------------------|--------------------------------|--------------------------------|
E|--------------------------------|--------------------------------|--------------------------------|



SOLO:
[FIG: 4]
x4
e|--------------------7~--|----------------------7-|-8~~p7------------------|
B|-8~~~----------10~------|-8~~~--------------10---|-------10---8~---7~-----|
G|------------------------|------------------------|------------------------|
D|------------------------|------------------------|------------------------|
A|------------------------|------------------------|------------------------|
E|------------------------|------------------------|------------------------|
 |                        |                        |                        |
e|------------------------|------------------------|------------------------|
B|-5~~~-----------7~--8~--|-5~~~---------------7-8-|-10~~p8p7---5~----------|
G|------------------------|------------------------|-----------------8~-----|
D|------------------------|------------------------|------------------------|
A|------------------------|------------------------|------------------------|
E|------------------------|------------------------|------------------------|


e|--------------------7~--|----------------------7-|-8~~p7------------------|
B|-8~~~----------10~------|-8~~~--------------10---|-------10---------------|
G|------------------------|------------------------|----------------8~~\----|
D|------------------------|------------------------|------------------------|
A|------------------------|------------------------|------------------------|
E|------------------------|------------------------|------------------------|
 |                        |                        |                        |
e|------------------------|------------------------|------------------------|
B|-5~~~-----------7~--8~--|-5~~~---------------7-8-|-10~~p8p7---------------|
G|------------------------|------------------------|------------------------|
D|------------------------|------------------------|----------------7~~\----|
A|------------------------|------------------------|------------------------|
E|------------------------|------------------------|------------------------|

OUTRO to INTERLUDE:
[FIG: 5]
e|----------------------------|----------------------------|
B|----------------------------|----------------------------|
G|----------------------------|----------------------------|
D|-----2--0-------------------|-----2--0-------------------|
A|----------4----3---2----1---|----------4----3---3--2-1---|
E|-0-3--------3----3----3---3-|-0-3--------3----3--------3-|


VERSE 3:
[FIG: 2]
There's gotta be Some other way
It's time to work it out Turning blue from grey
Your cuttin' out Is cutting in
We've had the time to bleed The blood is running thin

I don't need flips, You don't want flap
I wonder when you're gonna Get up on the track
You'd better keep me Just where you may
You'd better stick around Or get out of the way


CHORUS 3:
[FIG: 3]


OUTRO:
[FIG: 5]





| /  slide up
| \  slide down
| h  hammer-on
| p  pull-off
| ~  vibrato
| +  harmonic
| x  Mute note
===============================================================================

Related for Assault Attack tab