Guitaretab - guitar tabs
Song name
# A B C D E F G H I J K L M N O P Q R S T U V W X Y Z

Michael Schenker - Broken Promises tab

tabbed by the amazing and incredible NathanH

Capo on the sixth fret
standard tuning: EADGBE
Chord Progession for verse: Aminor, G, C

//intro:

e-------------9--9-----9---9-9-----9--------|
b------6h7----9--9-----9---9-9--7--9--------|
g------8------------------------------------|
d----8--------------------------8-----------|
a--6---------------8------------9-----------|
e------------------9------------------------|


e---------------5--5-----------|
b------6h7---9--7--5-----------|
g------------5--5--5-----------|
d---8--------------------------|
a---9--------------------------|
e------------------------------|

e-------------9--9-----9---9-9-------------|
b------6h7----9--9-----9---9-9--7----------|
g------8-----------------------------------|
d----8--------------------------8----------|
a--6---------------8------------9----------|
e------------------9-----------------------|


Broken Promise Lyrics:
by Candice Jarrett

Am   G        C
I break my promises

Am   G                   C
and I just broke one to you.
[ Tab from: http://www.guitaretab.com/m/michael-schenker/155955.html ]
Am              G          C
I promised you I'd try harder

Am                G                C
and I guess I've messed this one up too.

Now, I'm begging you for another chance.
No, you shouldn't give it to me.
But I swear to heaven this time I'll get things right.
But you ain't gotta believe me.

When you pick me up I let you down.
I blow out your candles
and I stand my ground.
The screen of the TV is as black as my coffee.

But my heart is the darkest thing around...
my heart is the darkest thing around.

I break my promises
and I just broke one to you.
I promised you I'd try harder
and I guess I've messed this one up too.

Now, I'm begging you for another chance.
I know, you shouldn't give it to me.
But I swear to heaven this time I'll get things right.
But you ain't gotta believe.
You ain't gotta believe me.

**** Working on tabbing out the bridge now. There's a good vid where you can really see 
hands doing this song on youtube. If anyone beats me to the tab, lemme know. vid is also 
her site: CandiceJarrett.com. She's good for a chick.
Related for Broken Promises tab
×
Broken Promises