Song name
# A B C D E F G H I J K L M N O P Q R S T U V W X Y Z

Michael Schenker - Voice Of My Heart tab

-------------------------------------------------------------------------------
		  VOICE OF MY HEART - Michael Schenker Group
-------------------------------------------------------------------------------
MSG
Voice Of My Heart
from: Tales Of Rock 'n' Roll (2006)

Tabbed by:malpka

Tuning: Standard


[FIG: 1]
        p.h          p.h.        p.h.         p.h.
e|------------------------|------------------------|
B|------------------------|------------------------|
G|------------------------|------------------------|
D|------------------------|------------------------|
A|-------7~~~-----3-------|-------7~~~-----3-------|
E|-0-0--------0---3---1~~-|-0-0--------0---3---1~~-|

        p.h          p.h.       p.h.          p.h.
e|------------------------|------------------------|
B|------------------------|------------------------|
G|------------------------|------------------------|
D|------------------------|------------------------|
A|-------7~~~-----3-------|-------7~~~-----3---5~--|
E|-0-0--------0---3---1~~-|-0-0--------0---3---5~--|


VERSE:
[FIG: 1]
Life is a circle
It starts where it ends
Maybe you already knew it?

I am the rain
As it falls to the ground
I am the heart that's been broken

PRE-CHORUS:
[FIG: 2]
  And it's long      yes it's long
e|--5~~~~---------|--5~~~~---------|
B|--4~~~~---------|--4~~~~---------|
G|--3~~~~---------|--3~~~~---------|
D|----------------|----------------|
A|----------------|----------------|
E|------------5~~-|------------5~~-|

  It's a long way to go
e|--5~~~~---------|--5~~~~---------|
B|--4~~~~---------|--4~~~~---------|
G|--3~~~~---------|--3~~~~---------|
D|----------------|----------------|
A|----------------|----------------|
E|------------5~~-|------------5~~-|

CHORUS:
[FIG: 3]
  But I can't      Deny the    Voice of my heart
e|----------------|----------------|----------------|
B|----------------|----------------|----------------|
G|----------------|----------------|----------------|
D|--9~~-----------|--7~~-----------|--5~~-----------|
A|--7~~-7--6~~----|--5~~-5--4~~----|--3~~-3--2~~----|
E|-------------7~-|-------------5~-|------------3-2-|

        p.h          p.h.       p.h.          p.h.
e|------------------------|------------------------|
B|------------------------|------------------------|
G|------------------------|------------------------|
D|------------------------|------------------------|
A|-------7~~~-----3-------|-------7~~~-----3-------|
E|-0-0--------0---3---1~~-|-0-0--------0---3---1~--|

VERSE:
[FIG: 1]
Life is a circle
It starts where it ends
Maybe you already knew it?

PRE-CHORUS
[FIG: 2]
But I can't
No I can't
I can't wait to move on

[FIG: 3]
Now that she's gone
Now that she's gone


VERSE:
That dawn will light my soul
And thaw my coldest fears
Forgiveness, bind my wounds
And love will dry my wettest tear
e|--0~---
B|--1~---
G|--2~--- just softly arpeggiate...
D|--2~---
A|--0~---
E|-------

SOLO:
  8x
e|--------------------------------
B|--------------------------------
G|--------------------------------
D|-------7-6~----6-5~----5-4~-----
A|--------------------------------
E|--0--0-------0-------0------5~~-


VERSE:
That dawn will light my soul
And thaw my coldest fears
Forgiveness, bind my wounds
And love will dry my wettest tear
e|--0~---
B|--1~---
G|--2~---  just softly arpeggiate...
D|--2~---
A|--0~---
E|-------

  LEAD-IN TO "JOURNEY MAN"




| /  slide up
| \  slide down
| h  hammer-on
| p  pull-off
| ~  vibrato
| +  harmonic
| x  Mute note
===============================================================================
Tap to rate this tab
# A B C D E F G H I J K L M N O P Q R S T U V W X Y Z