Song name
# A B C D E F G H I J K L M N O P Q R S T U V W X Y Z

Michael Schenker - Desert Song tab

-------------------------------------------------------------------------------
			    DESERT SONG - Michael Schenker Group
-------------------------------------------------------------------------------
MSG
Desert Song
From: Assault Attack (1982)
Tabbed by:malpka
Tuning: Standard

INTRO:
e|------------------------|------------------------|
B|------------------------|------------------------|
G|------------------------|------------------------|
D|------4------5--5-------|------------------------|
A|------5------7--7-------|------------------------|
E|--0---------------------|--0--2--3---5--5--3--2--|

e|------------------------|------------------------|
B|------------------------|--0---------------------|
G|------------------------|-0----------------------|
D|------4------5--5-----4-|------------------------|
A|------5------7--7----5--|------------------------|
E|--0---------------------|------------------------|


[FIG: 1]
e|------------------------|------------------------|
B|------------------------|------------------------|
G|------------------------|------------------------|
D|----5--5-----4--4-----5-|--7------9----------10--|
A|-x--7--7-----5--5-----7-|--9------10---------12--|
E|-x----------------------|------------------------|

e|------------------------|------------------------|
B|------------------------|------------------------|
G|------------------------|------------------------|
D|--10------9---9------7--|--7------5-----4--4--4--|
A|--12------10--10-----9--|--9------7-----5--5--5--|
E|------------------------|------------------------|

VERSE:
[FIG: 1]
We're sailing ships across the desert
Fading in the Arabian sun

Your stallion stands to watch the sunset
The women scream as the camels run

To find a mirage, a cool oasis
And lie beneath the palms and the sky

And spend the night a silver moon set
The rising sun in the eagles eye


e|...-----------|
B|...-----------|
G|...-----------|
D|...-----------|
A|...-----------|
E|...---3--2--0-|


CHORUS:
[FIG: 2]
      Heat of a           dusky lady
e|------------------------|------------------------|
B|------------------------|------------------------|
G|------------------------|------------------------|
D|------------------------|------------------------|
A|---2-------2-------5----|-(5)-----3--------------|
E|------------------------|---------------3--2--0--|
 |                        |                        |
e|------------0-----------|------------------------|
B|------0--------0--------|----3-------------------|
G|---------0--------0-----|-------0----------------|
D|---2-----------------0--|------------------------|
A|------------------------|----------3-------------|
E|------------------------|---------------3--2--0--|

      Born  on    the      sand
e|------------------------|------------------------|
B|------------------------|------------------------|
G|------------------------|------------------------|
D|------------------------|------------------------|
A|---2-------2-------5----|-(5)-----3--------------|
E|------------------------|---------------3--2--0--|
 |                        |                        |
e|------------0-----------|------------------------|
B|------0--------0--------|----3-------------------|
G|---------0--------0-----|-------0----------------|
D|---2-----------------0--|------------------------|
A|------------------------|----------3-------------|
E|------------------------|---------------3--2--0--|

      Burnin'    with      desert  fire
e|------------------------|------------------------|
B|------------------------|------------------------|
G|------------------------|------------------------|
D|------------------------|------------------------|
A|---2-------2-------5----|-(5)-----3--------------|
E|------------------------|---------------3--2--0--|
 |                        |                        |
e|------------0-----------|------------------------|
B|------0--------0--------|----3-------------------|
G|---------0--------0-----|-------0----------------|
D|---2-----------------0--|------------------------|
A|------------------------|----------3-------------|
E|------------------------|---------------3--2--0--|

      Coolin'   the   man
e|------------------------|------------------------|
B|------------------------|------------------------|
G|------------------------|------------------------|
D|------------------------|------------------------|
A|---2-------2-------5----|-(5)-----3--------------|
E|------------------------|---------------3--2--0--|
 |                        |                        |
e|------------0-----------|------------------------|
B|------0--------0--------|----3-------------------|
G|---------0--------0-----|-------0----------------|
D|---2-----------------0--|------------------------|
A|------------------------|----------3-------------|
E|------------------------|---------------3--2--0--|


[FIG: 1]


VERSE:
[FIG: 1]
Endless is the blowing desert
And in the shipwreck some may be lost
Too hot the sand too deep the oceans
It's just surviving whatever the cost

CHORUS
[FIG: 2]


SOLO:

e|----------------|----------------|----------------|----------------|
B|---10b12~~~~~---|~r---------8-10-|--10b12~~~~-----|-~~~~~~~~-------|
G|----------------|--9~~~-9-11-----|----------------|----------------|
D|----------------|----------------|----------------|----------------|
A|----------------|----------------|----------------|----------------|
E|----------------|----------------|----------------|----------------|


e|----------------|----------------|----------------|----------------|
B|-10b12r--8--10--|---------7~-----|--7h8~~~~~------|-~~----7--8--10-|
G|----------------|--9~------------|----------------|-----9----------|
D|----------------|----------------|----------------|----------------|
A|----------------|----------------|----------------|----------------|
E|----------------|----------------|----------------|----------------|


e|----------------|----------------|----------------|----------------|
B|-/12------------|--12brbrb---8---|-10b12r---10b12-|~r--------------|
G|----------------|----------------|----------------|-----9~~~~------|
D|----------------|----------------|----------------|----------------|
A|----------------|----------------|----------------|----------------|
E|----------------|----------------|----------------|----------------|
 |                |                |                |                |
e|----------------|----------------|----------------|----------------|
B|----------------|------------8~~-|----------------|----------------|
G|----------------|----------------|----------------|----------------|
D|--9-------------|---9brbrb-9-----|----9-----------|-----------9b12~|
A|----------------|----------------|-----------10---|---7------------|
E|----------------|----------------|----------------|----------------|

e|----------------|----------------|----------------|----------------|
B|-------7--8--10-|--10b12r--------|-------8----8---|----------------|
G|----9-----------|-----------9----|----------------|--9~~~~~~-------|
D|----------------|----------------|----------------|----------------|
A|----------------|----------------|----------------|----------------|
E|----------------|----------------|----------------|----------------|
 |                |                |                |                |
e|----------------|----------------|----------------|----------------|
B|----------------|----------------|----------------|----------------|
G|~~~-------------|----------12b14~|~~~-------------|----------------|
D|----------------|----------------|----------------|----------------|
A|----------------|----------------|----------------|----------------|
E|----------------|----------------|----------------|-------3--2--0--|



OUTRO:
e|----------------|----------------|----------------|----------------|
B|--5-------------|--5-------------|--7------8------|----------7h8p7-|
G|--7b~~~---------|--7b~~~---------|--9b~~---10b~~--|-------10-------|
D|----------------|----------------|----------------|----------------|
A|----------------|----------------|----------------|----------------|
E|----------------|----------------|----------------|----------------|

e|------------------------|------------------------|
B|---------------8--10~~--|--8p7h8p5h8p5---5-------|
G|--10--7--9--7-----------|--------------7---7b9~~-|
D|------------------------|------------------------|
A|------------------------|------------------------|
E|------------------------|------------------------|

e|----------------|----------------|----------------|----------------|
B|--5~~\----------|----------------|----------------|/12-15b17-15p12-|
G|----------2b4~~-|--2b4~~4~~4~~4~~|--0h2~~~----2/--|/12-------------|
D|----------------|----------------|----------------|----------------|
A|----------------|----------------|----------------|----------------|
E|----------------|----------------|----------------|----------------|

e|----------------------14|-15-17-17b19~~----20b22~|
B|12h15p12--15--12-15-17--|------------------------|
G|--------14--14----------|------------------------|
D|------------------------|------------------------|
A|------------------------|------------------------|
E|------------------------|------------------------|

e|---19----19-17-15-17-17b|~r----------------------|
B|------20----------------|------------------------|
G|------------------------|----16~~----------------|
D|------------------------|------------------------|
A|------------------------|------------------14-17-|
E|------------------------|------------------------|

e|--------------15-----14-15------|15-14-12-14-12--12--------------|
B|-----------17-----17--------17--|--------------15--15-12---------|
G|--------16----------------------|-----------------------15-14-12-|
D|--14-17-------------------------|--------------------------------|
A|--------------------------------|--------------------------------|
E|--------------------------------|--------------------------------|

e|-------12----15b17--15~-|--15~~-12h15p12---------|
B|-15---------------------|---------------15b-15b~-|
G|------------------------|------------------------|
D|----14----14------------|------------------------|
A|------------------------|------------------------|
E|------------------------|------------------------|

e|------------------------------------------------|
B|17-15p12-15p12---12-15-12-15-12---15-12-15-12---|
G|--------------14b--------------14b-----------14b|
D|------------------------------------------------|
A|------------------------------------------------|
E|------------------------------------------------|

e|----------------|----------------|----------------|
B|----------------|----------------|----------------|
G|-r-12-----------|----------------|----------------|
D|------------9\7-|--7\5~~-----7b~-|-~~---7-5----7/-|
A|------14~~------|----------------|----------7-----|
E|----------------|----------------|----------------|

e|------------------------|-12~~-------------------|
B|----12----------12-14-15|------15b~~~r~~~-15b~~--|
G|--12--15-14-12-14-------|------------------------|
D|14----------------------|------------------------|
A|------------------------|------------------------|
E|------------------------|------------------------|





| /  slide up
| \  slide down
| h  hammer-on
| p  pull-off
| ~  vibrato
| +  harmonic
| x  Mute note
===============================================================================
Tap to rate this tab
# A B C D E F G H I J K L M N O P Q R S T U V W X Y Z