Song name
# A B C D E F G H I J K L M N O P Q R S T U V W X Y Z

Michael Schenker - Illusion tab

-------------------------------------------------------------------------------
			  ILLUSION - Michael Schenker Group
-------------------------------------------------------------------------------
MSG
Illusion
From: Arachnophobiac (2003)

Tabbed by:malpka

Tuning: Standard

INTRO:
e|------------------------|------------------------|
B|------------------------|------------------------|
G|------------------------|------------------------|
D|------------------------|------------------------|
A|------------------------|------------------------|
E|------------------------|------------------------|
 |                        |                        |
e|------------------------|-------------------0----|
B|--------3----------3----|--------3------------0--|
G|----------4----------4--|----------4-------------|
D|-----4----------4-------|-----4----------4-------|
A|--2----------0----------|------------------------|
E|------------------------|--3----------0----------|


e|------------------------|------------------------|
B|------------------------|------------------------|
G|------------------------|------------------------|
D|------------------------|------------------------|
A|------------------------|------------------------|
E|------------------------|------------------------|
 |                        |                        |
e|------------------------|-------------------0----|
B|--------3----------3----|--------3-----------0---|
G|----------4----------4--|----------4----------0--|
D|-----4----------4-------|-----4----------4-------|
A|--2----------0----------|------------------------|
E|------------------------|--3----------0----------|


e|------------------------|------------------------|
B|------------------------|------------------------|
G|------------------------|------------------------|
D|------------------------|------------------------|
A|------------------------|------------------------|
E|------------------------|------------------------|
 |                        |                        |
e|------------------------|-------------------0----|
B|--------3----------3----|--------3------------0--|
G|----------4----------4--|----------4-------------|
D|-----4----------4-------|-----4----------4-------|
A|--2----------0----------|------------------------|
E|------------------------|--3----------0----------|


e|------------------------|------------------------|
B|------------------------|------------------------|
G|------------------------|------------------------|
D|------------------------|------------------------|
A|------------------------|------------------------|
E|------------------------|------------------------|
 |                        |                        |
e|------------------------|--------------0~--------|
B|--------3----------3----|--------3-----0~--------|
G|----------4----------4--|----------4---0~--------|
D|-----4----------4-------|-----4--------2~--------|
A|--2----------0----------|--------------2~--------|
E|------------------------|--3-----------0~--------|



[FIG: 2]
X2
e|------------------------|
B|------------------------|
G|-2--2--x--0--2--5--2--2-|
D|-2--2--x--0--2--5--2--2-|
A|-0--0--------0--3--0--0-|
E|----------3-------------|


VERSE 1:
[FIG: 3]
   Runnin' backwards on a stormy ride
e|----------------------------|----------------------------|
B|----------------------------|----------------------------|
G|--2--2------------0--2--5~--|--2--2------------0--2--5~--|
D|--2--2------------0--2--5~--|--2--2------------0--2--5~--|
A|--0--0--x-x--x-x-----0--3~--|--0--0--x-x--x-x-----0--3~--|
E|--------x-x--x-x--3---------|--------x-x--x-x--3---------|

   Disillusion in your wake
e|----------------------------|----------------------------|
B|----------------------------|----------------------------|
G|--2--2------------0--2--5~--|--2--2------------0--2--5~--|
D|--2--2------------0--2--5~--|--2--2------------0--2--5~--|
A|--0--0--x-x--x-x-----0--3~--|--0--0--x-x--x-x-----0--3~--|
E|--------x-x--x-x--3---------|--------x-x--x-x--3---------|

   Overload it's time to run and hide
e|----------------------------|----------------------------|
B|----------------------------|----------------------------|
G|--2--2------------0--2--5~--|--2--2------------0--2--5~--|
D|--2--2------------0--2--5~--|--2--2------------0--2--5~--|
A|--0--0--x-x--x-x-----0--3~--|--0--0--x-x--x-x-----0--3~--|
E|--------x-x--x-x--3---------|--------x-x--x-x--3---------|

   Burn your virtue on a stake
e|----------------------------|----------------------------|
B|----------------------------|----------------------------|
G|--2--2------------0--2--5~--|--2--2------------0--2--5~--|
D|--2--2------------0--2--5~--|--2--2------------0--2--5~--|
A|--0--0--x-x--x-x-----0--3~--|--0--0--x-x--x-x-----0--3~--|
E|--------x-x--x-x--3---------|--------x-x--x-x--3---------|


[FIG: 4]
      Relying on everyone
e|-----------0--------|-----------0--------|
B|---------0---0------|---------0---0------|
G|-------6-------6----|-------6-------6----|
D|-----6-----------6--|-----6-----------6--|
A|--/4----------------|--/4----------------|
E|--------------------|--------------------|
 |                    |                    |
e|--------------------|--------------------|
B|--------------------|--------------------|
G|-4/6--6-6--6\4------|-4/6--6-6--6\4------|
D|-4/6--6-6--6\4--x-x-|-4/6--6-6--6\4--x-x-|
A|-2/4--4-4--4\2--x-x-|-2/4--4-4--4\2--x-x-|
E|--------------------|--------------------|


      To break your fall
e|-----------0--------|----------0---------|
B|---------0---0------|-------------0------|
G|-------6-------6----|--------------------|
D|-----6-----------6--|-----6--------------|
A|--/4----------------|--/4----------------|
E|--------------------|--------------------|
 |                    |                    |
e|--------------------|--------------------|
B|--------------------|--------------------|
G|-4/6--6-6--6\4------|-4/6--6-6--6\4------|
D|-4/6--6-6--6\4--x-x-|-4/6--6-6--6\4--x-x-|
A|-2/4--4-4--4\2--x-x-|-2/4--4-4--4\2--x-x-|
E|--------------------|--------------------|


       Is gonna leave you alone
e|-----------0--------|-----------0--------|
B|---------0---0------|---------0---0------|
G|-------9-------9----|-------9-------9----|
D|-----9-----------9--|-----9-----------9--|
A|--/7----------------|--/7----------------|
E|--------------------|--------------------|
 |                    |                    |
e|--------------------|--------------------|
B|--------------------|--------------------|
G|-7/9--9-9--9\7------|-7/9--9-9--9\7------|
D|-7/9--9-9--9\7--x-x-|-7/9--9-9--9\7--x-x-|
A|-5/7--7-7--7\5--x-x-|-5/7--7-7--7\5--x-x-|
E|--------------------|--------------------|

     At the end of it all
e|-----------0--------|------------7-------|
B|---------0---0------|---------0--7-------|
G|-------9-------9----|--------------------|
D|-----9-----------9--|-----9--------------|
A|--/7----------------|--/7----------------|
E|--------------------|--------------------|
 |                    |                    |
e|--------------------|--------------------|
B|--------------------|--------------------|
G|-7/9--9-9--9\7------|---9----------------|
D|-7/9--9-9--9\7--x-x-|---9----------------|
A|-5/7--7-7--7\5--x-x-|---7----------------|
E|--------------------|--------------------|



CHORUS:
[FIG: 5]
 Your life's an illusion You're headed out to sea
e|--------------------|--------------------|
B|-----------3--------|-----------3--------|
G|--4------------4----|--2------------4----|
D|--4-----------------|--2-----------------|
A|--2----2------------|--0----0------------|
E|--------------------|--------------------|
 |                    |                    |
e|--------------------|--------------------|
B|--------------------|--------------------|
G|--------------------|--------------------|
D|-/9--------9--------|--7--------7--------|
A|-/9--------9--------|--7--------7--------|
E|-/7-7-7-7--7-7-7-7--|--5-5-5-5--5-5-5-5--|

 Wading thru quicksand It's gettin hard to breathe
e|--------------------|-----------0--------|
B|-----------3--------|--------------0-----|
G|--0------------4----|-----------------0--|
D|--0----0------------|--2----2------------|
A|--------------------|--2-----------------|
E|--3----3------------|--0-----------------|
 |                    |                    |
e|--------------------|--------------------|
B|--------------------|--------------------|
G|--------------------|--------------------|
D|--5--------5--------|--2---2-------------|
A|--5--------5--------|--2---2-------------|
E|--3-3-3-3--3-3-3-3--|--0---0-------------|

 Alone in your silence It's time to take control
e|--------------------|--------------------|
B|-----------3--------|-----------3--------|
G|--4------------4----|--2------------4----|
D|--4-----------------|--2-----------------|
A|--2----2------------|--0----0------------|
E|--------------------|--------------------|
 |                    |                    |
e|--------------------|--------------------|
B|--------------------|--------------------|
G|--------------------|--------------------|
D|-/9--------9--------|--7--------7--------|
A|-/9--------9--------|--7--------7--------|
E|-/7-7-7-7--7-7-7-7--|--5-5-5-5--5-5-5-5--|

 Your life's an illusion So step up and save your soul
e|--------------------|-----------0--------|
B|-----------3--------|--------------0-----|
G|--0------------4----|-----------------0--|
D|--0-----------------|--2----2------------|
A|--------------------|--2-----------------|
E|--3----3------------|--0-----------------|
 |                    |                    |
e|--------------------|--------------------|
B|--------------------|--------------------|
G|--------------------|--------------------|
D|--5--------5--------|--2---2-------------|
A|--5--------5--------|--2---2-------------|
E|--3-3-3-3--3-3-3-3--|--0---0-------------|


[FIG: 2]

VERSE 2:
[FIG: 3]
You laid your hopes
Out on an empty beach
But the tide came
And washed them all away

It ain't no use in cryin'
Or beggin' on your knees
Now's the time to take
You some responsibility

[FIG: 4]

CHORUS
[FIG: 5]



e|------------------------|------------------------|
B|------------------------|------------------------|
G|------0------0---0---0--|------0------0---0---0--|
D|----0------0-----0---0--|----0------0-----0---0--|
A|--4------1-------2---2--|--4------1-------x---x--|
E|-----------------3---3--|-----------------3---3--|


e|-----------------------------------------------|
B|-----------------------------------------------|
G|------0------0------0------0----------------2~-|
D|----0------0------0------0------------------2~-|
A|--4------1------4------1--------0-1----0-2--0~-|
E|------------------------------3------3---------|

e|--------|--------|
B|--------|--------|
G|--2-----|--2-----|
D|--2-----|--2-----|
A|--0-----|--0-----|
E|--------|--------|


SOLO RYTHYM:

e|--------|--------|--------|--------|
B|--------|--------|--------|--------|
G|--7-----|--7-----|--3-----|--5-----|
D|--7-----|--7-----|--3-----|--5-----|
A|--5-----|--5-----|--1-----|--3-----|
E|--------|--------|--------|--------|



INTERLUDE:
e|----------------|----------------|
B|------3----6~---|------3----6-6--|
G|--4b5------5~---|--4b5------5-5--|
D|--------5-------|--------5-------|
A|----------------|----------------|
E|----------------|----------------|
 |                |                |
e|----------------|----------------|
B|------------6~--|------------6~--|
G|------------5~--|------------5~--|
D|------------5~--|------------5~--|
A|--3---3--3------|--3---3--3------|
E|----------------|----------------|

e|----------------|----------------|
B|------3----6~---|------3----6-6--|
G|--4b5------5~---|--4b5------5-5--|
D|--------5-------|--------5-------|
A|----------------|----------------|
E|----------------|----------------|
 |                |                |
e|----------------|----------------|
B|------------6~--|------------6~--|
G|------------5~--|------------5~--|
D|------------5~--|------------5~--|
A|--3---3--3------|--3---3--3------|
E|----------------|----------------|


e|----------------|----------------|
B|------3----6~---|------3----6-6--|
G|--4b5------5~---|--4b5------5-5--|
D|--------5-------|--------5-------|
A|----------------|----------------|
E|----------------|----------------|
 |                |                |
e|----------------|----------------|
B|------------6~--|------------6~--|
G|------------5~--|------------5~--|
D|------------5~--|------------5~--|
A|--3---3--3------|--3---3--3------|
E|----------------|----------------|

e|----------------|----------------|
B|------3----6----|--6---6----6.---|
G|--4b5------5----|--5---5----5.---|
D|--------5-------|--5---5----5.---|
A|----------------|----------------|
E|----------------|----------------|
 |                |                |
e|----------------|----------------|
B|------------6~--|--6---6----6~---|
G|------------5~--|--5---5----5~---|
D|------------5~--|--5---5----5~---|
A|--3---3--3------|--3---3----3~---|
E|----------------|----------------|


VERSE 3:
You can't see past
Your fantasy-filled ways
Your skies are dark
And a storm is rollin' in

I won't be your savior
I can't stop the rain
But I can see a trainwreck a-comin' now
And you're standin' in the way

etc...


| /  slide up
| \  slide down
| h  hammer-on
| p  pull-off
| ~  vibrato
| +  harmonic
| x  Mute note
===============================================================================
Tap to rate this tab
 
# A B C D E F G H I J K L M N O P Q R S T U V W X Y Z