Song name
# A B C D E F G H I J K L M N O P Q R S T U V W X Y Z

Michael Schenker - Rock My Nights Away tab

-------------------------------------------------------------------------------
		  ROCK MY NIGHTS AWAY - Michael Schenker Group
-------------------------------------------------------------------------------
MSG
Rock My Nights Away
US Version (UK Version has keyboards on intro)
From: Built To Destroy (1983)

Tabbed by:malpka

Tuning: Standard


INTRO:
e|------------------------|------------------------|
B|------------------------|------------------------|
G|------------------------|------------------------|
D|--2~~---2-2--2/4---4/6--|------------------------|
A|------------------------|--2~~-------------------|
E|------------------------|------------------------|

e|------------------------|------------------------|
B|------------------------|------------------------|
G|------------------------|------------------------|
D|--2~~---2--4/7----5--4--|------------------------|
A|------------------------|--5/7~~-----------------|
E|------------------------|----------0\------------|

e|------------------------|------------------------|
B|------------------------|------------------------|
G|------------------------|------------------------|
D|--2~~---2-2--2/4---4/6--|------------------------|
A|------------------------|--2~~--------------12\--|
E|------------------------|------------------------|

e|------------------------|------------------------|
B|------------------------|------------------------|
G|------------------------|------------------------|
D|--2~~---2--4/7----5--4--|-2~~--2--4/7-5h7p5--4---|
A|------------------------|----------------------5/|
E|------------------------|------------------------|

e|---------------------- || -----------------------|
B|---------------------- || -----------------------|
G|---------------------- || -----------------------|
D|---------------------- || -----------------------|
A|-/7~~~~~~~------------ || -3--2--0------------5--|
E|---------------------- || ----------3----2--0----|



[FIG: 1]
e|------------------------|------------------------|
B|--9--9------------------|--9--9------------------|
G|--9--9------------------|--9--9------------------|
D|--9--9------7-----9-----|--9--9------7-----9-----|
A|--7--7------7-----9-----|--7--7------7-----9-----|
E|------------5-----7-----|------------5-----7-----|

e|------------------------|------------------------|
B|----------------------7-|----8------8---7--------|
G|----------------------7-|----7------7---7--------|
D|----------------------7-|----7------7---7--------|
A|-3--2--0--------------5-|----5------5---5--------|
E|----------3-----2--0----|------------------------|


[FIG: 2]
e|------------------------|------------------------|
B|--9--9------------------|--9--9------------------|
G|--9--9------------------|--9--9------------------|
D|--9--9------7-----9-----|--9--9------7-----9-----|
A|--7--7------7-----9-----|--7--7------7-----9-----|
E|------------5-----7-----|------------5-----7-----|

e|------------------------|------------------------|
B|----------------------7-|-------8------8---7-----|
G|--5-------------------7-|-------7------7---7-----|
D|--5---------5---------7-|-------7------7---7-----|
A|--3---------5---------5-|---5---5------5---5-----|
E|------------3-----------|------------------------|


VERSE:
[FIG: 2]
She never wants to hide from fire, no
Got too much desire

She's squeezing out the best in me, but oh
I don't wanna let her go

She makes me feel a little special, yeah
Never keeps it to herself

Really does the things I like, and oh
I don't wanna let her go




PRE-CHORUS:
[FIG: 3]
    The more you give  to me girl
e|------------------------|------------------------|
B|------------------------|--3---------------------|
G|--5---------------------|--2---------------------|
D|--5---------------------|--0---------------------|
A|--3---------------------|------------------------|
E|------------------------|------------------------|

               Day to day
e|------------------------|----------------+7------|
B|------------------------|----------------+7------|
G|------------------------|----------------+7------|
D|------------------------|------------------------|
A|------------------------|------------------------|
E|--3~~--------2~~--------|-0~~\-------------------|

     It's very  hard   to    stay away
e|------------------------|------------------------|
B|------------------------|--3---------------------|
G|--5---------------------|--2---------------------|
D|--5---------------------|--0---------------------|
A|--3---------------------|------------------------|
E|------------------------|------------------------|

e|------------------------|------------------------|
B|--------10--10---9--10--|--10---10--9------------|
G|--9-----9---9----9--9---|--9----9---9------------|
D|--9-----9---9----9--9---|--9----9---9------------|
A|--7---------------------|-----------7------------|
E|--0---------------------|-----------0------------|


      And when I'm     sad and lonely
e|------------------------|------------------------|
B|------------------------|--3---------------------|
G|--5---------------------|--2---------------------|
D|--5---------------------|--0---------------------|
A|--3---------------------|------------------------|
E|------------------------|------------------------|

               far from home
e|------------------------|------------------------|
B|------------------------|-----------------7------|
G|------------------------|-----------------7------|
D|------------------------|-----------------7------|
A|------------------------|-----------------5------|
E|--3~~--------2~~--------|-0~~--------------------|

   Who's gonna rock my nights away
e|------------------------|------------------------|
B|------------------------|--3---------------------|
G|--5---------------------|--2---------------------|
D|--5---------------------|--0---------------------|
A|--3---------------------|------------------------|
E|------------------------|------------------------|

VERSE:
[FIG: 2]
The lightning only struck me once, but oh
You can strike me any time

Cause when I get you all alone, lookout
I won't ever let you go

PRE-CHORUS:
[FIG: 3]
The more I get to know you
You're outta reach
You've got me so I just can't sleep

Cause when I'm sad and lonely
From day to day
Who's gonna rock my nights away?




| /  slide up
| \  slide down
| h  hammer-on
| p  pull-off
| ~  vibrato
| +  harmonic
| x  Mute note
===============================================================================
Tap to rate this tab
# A B C D E F G H I J K L M N O P Q R S T U V W X Y Z