Song name
# A B C D E F G H I J K L M N O P Q R S T U V W X Y Z

Michel Legrand - Les Parapluies De Cherbourg tab

 "Parapluies de Cherbourg" 
  Michel Legrand

  Arranged by Gnom

  I've always wanted to play this piece on guitar but can't find
  a serious arrangement so I tried it myself.
  
  I have no time to add LHF - sorry, maybe later...

  Email: slowhand@list.ru

-----------------------------------------------------------------------------

Slow, with expression
                                                                            
E||--6----7----5--------||---3--------------------|--11----12----10--------|
B||------------0--------||---0--------7--------5--|--9-----------10--------|
G||------------0--------||*--0--------4-----4-----|--9-----------9---------|
D||------------5--------||*--5-----------6--------|--9-----------10--------|
A||---------------------||------------------------|--------------0---------|
E||------------0--------||------------4-----------|--0---------------------|


--8--------8-----------|----------------------|-----------------------|
--8--------5--------5--|--9----10----8--------|--7--------5--------3--|
--9--------5-----5-----|--7----------5--------|--9--------5-----5-----|
--7--------5--7--------|-------------7--------|--7--------4--4--------|
-----------------------|-------------5--------|--5--------3-----------|
-----------5-----------|----------------------|-----------------------|


--9----10---------------|-------------7-----------|--6----7----5--------|
--7----------10---------|--8----------4--------7--|--4---------0--------|
--9----------7-----7----|--7-----7----6-----6-----|--4---------0--------|
--0----------7----------|--9----------4--4--------|--4---------5--------|
-------------10---------|--10---------7-----------|---------------------|
------------------------|-------------------------|------------0--------|


--3--------------------|--11----12----10--------|--8--------8-----------|
--0--------7--------5--|--9-----------10--------|--8--------5--------5--|
--0--------4-----4-----|--9-----------9---------|--9--------5-----5-----|
--5-----------6--------|--9-----------10--------|--7--------5--7--------|
-----------------------|--------------0---------|-----------------------|
-----------4-----------|------------------------|-----------5-----------|


--7----5----7----12----|------------------7----|---------------------|
--5---------8----------|--8---------7----------|---------------------|
--5---------9----------|--9----9----9----------|--4------------------|
--7--------------------|------------11---------|-------1----2--------|
--0---------7----------|--7---------9----------|--2----1-------------|
-----------------------|------------7----------|------------0--------|


---------------------|--6----7----5---------||--------------------|
---------------------|--5----7----0---------||--------------------|
---------------------|------------0--------*||--------------------|
---------------------|------------5--------*||--------------------|
----------------2----|----------------------||--------------------|
--3--------0---------|------------0---------||--3--------8--------|


--7----8----6---------|--4--------------------|--12----13----11--------|
--6----8----6---------|--6--------8--------6--|--10----------11--------|
------------5----5----|--5--------5-----5-----|--10----------10--------|
------------6---------|--6--------5--7--------|--10--------------------|
----------------------|-----------------------|------------------------|
----------------------|-----------5-----------|--------------9---------|


--9---------9-----------|--5----6----4--------|--3--------------------|
--9---------6--------6--|--4---------2--------|--6--------6--------4--|
--10--------6-----6-----|------------3--------|--3--------6-----6-----|
--8---------6--6--------|------------1--------|-----------5--5--------|
------------8-----------|---------------------|--6--------4-----------|
------------------------|---------------------|-----------------------|


--10----11----6---------|--4--------8-----------|--7----8----6--------|
--8-----------4----4----|--4--------5-----5h-8--|--5---------6--------|
--10----------3---------|--5--------7--7--------|--5---------5--------|
--8-----------6---------|--6--------5-----------|--5---------6--------|
------------------------|-----------------------|---------------------|
------------------------|--4--------------------|---------------------|


--4------6h-4--------------|--12----13----11------13h-11--|
--6------------8--------6--|--10----------11--------------|
--5------------5-----5-----|--10----------10--------------|
--6------------5--7--------|--10----------11--------------|
---------------------------|------------------------------|
---------------5-----------|------------------------------|


--9-------8--9---------|--8----6----8-----13----|-------------3----8----|
--9----------6----6----|--6---------9-----------|--9-----6----6---------|
--10---------6---------|--6---------10----------|--10---------3---------|
--8----------6---------|--8---------------------|-------------5---------|
-----------------------|------------8-----------|--8----------3---------|
-------------6---------|--6---------------------|-----------------------|


---------------------|--------------------|--8----9----7---------|
---------------------|--------------------|--7----9----7---------|
--5------------------|--------------------|------------6----6----|
-------2----3--------|--------------------|------------7---------|
--3----2-------------|--------------------|----------------------|
------------1--------|--4--------9--------|----------------------|


--5--------------------|--13----14----12--------|--10----------10-----------|
--7--------9--------7--|--11----------12--------|--10----------7---------7--|
--6--------6-----6-----|--11----------11--------|--11----11----7------7-----|
--7--------6--8--------|--11----------0---------|--9-----------7---9--------|
-----------------------|------------------------|---------------------------|
-----------6-----------|------------------------|--------------7------------|


--6----7----5---------|--4----5----4--------------|--11----12----7---------|
--5---------3---------|--7--------------7----5----|--9-----------5----5----|
------------4----4----|--4--------------7----7----|--11----------4---------|
------------2---------|-----------------6----6----|--9-----------7---------|
----------------------|--7--------------5---------|------------------------|
----------------------|---------------------------|------------------------|


--5---------9-----------|--8----9----7---------|--5----7----5--------------|
--5----5----6-----6h-9--|--6---------7---------|--7--------------9----7----|
--6---------8--8--------|--6---------6----6----|--6--------------6----6----|
--7---------6-----------|--6---------7---------|--7------------------------|
------------------------|----------------------|---------------------------|
------------------------|----------------------|---------------------------|


--13----14----12----------|--10----------10---------|--9----7----9-----14----|
--11----------12----------|--10----------7-----7----|--7---------10----------|
--11----------11----11----|--11----11----7----------|--7---------11----------|
--11----------12----------|--9-----------7----------|--9---------------------|
--------------------------|-------------------------|------------9-----------|
--------------------------|-------------------------|--7---------------------|


-------------------9----|--------------------|------------------------|
--10----7----9----------|--------------------|------------------------|
--11---------11---------|--------------------|---------6--7--7--6--6--|
------------------------|--11----------------|---------7--7--7--7--7--|
--9----------11---------|--------------------|--9---------------------|
-------------9----------|--9-----------------|--9---------------------|


--------------------------|------------------------|--------------------------|
--------------------------|------------------------|--------------------------|
--9--9--7--7--6--6--------|------------6--6--------|--7--7--6--6--------------|
--7--7--7--7--7--7--9--7--|--9------9--9--9--9--9--|--9--9--9--9--9--9--7--6--|
--------------------9--9--|--9------9--------9--9--|--------------7--7--7--7--|
--------------------------|------------------------|--------------------------|


------14------------||
------10------------||
------11------------||
--------------------||
------9-------------||
--------------------||

Tap to rate this tab
# A B C D E F G H I J K L M N O P Q R S T U V W X Y Z