Song name
# A B C D E F G H I J K L M N O P Q R S T U V W X Y Z

Microphones - Lanterns tab

This is for the live version played in Japan.

Intro:  
e|---------------------------------------------------------------------------|
B|---------------------------------------------------------------------------|
G|---------------------------------------------------------7-7-6-4-----------|
D|------------4p2--------------------------7---------------------------------|
A|-----5\2--------5p4-------------5-5-5\2--7-7/9\7\5-------9---9-5-5\2-------|
E|-3-3------5----------7-7--7-7---3-3------5----------7------7---3-----------|

  
e|---------------------------------------------------------------------------|
B|---------------------------------------------------------------------------|
G|---------------------------------------------------------------------------|
D|-7----------9-9--99999999--------------------------------------------------|
A|-7-7/9\7\5--9-9--99999999--------------------------------------------------|
E|-5----------7-7--77777777--------------------------------------------------|



Verse:  "Don't go out..."
e|---------------------------------------------------------------------------|
B|---------------------------------------------------------------------------|
G|---------------------------------------------------------------------------|
D|-5-5--xxxx--7-7--xxxx--9-9--xxxx--9-9--------------------------------------|
A|-5-5--xxxx--7-7--xxxx--9-9--xxxx--9-9--------------------------------------|
E|-3-3--xxxx--5-5--xxxx--7-7--xxxx--7-7--------------------------------------|

All the verses are pretty much this and variations of the intro...just listen to 
the song.
For best sound just finger pick.

Tap to rate this tab
# A B C D E F G H I J K L M N O P Q R S T U V W X Y Z