Song name
# A B C D E F G H I J K L M N O P Q R S T U V W X Y Z

Microphones - Headless Horseman tab

-------------------------------------------------------------------------------
			     HEADLESS HORSEMAN - the Microphones
-------------------------------------------------------------------------------

Tuning:Standard

chords alternate between these two
    F    C
e|---------------------------------------------------------------------------|
B|---------------------------------------------------------------------------|
G|---------------------------------------------------------------------------|
D|--2----2-------------------------------------------------------------------|
A|--0----3-------------------------------------------------------------------|
E|--1----3-------------------------------------------------------------------|

transition
e|---------------------------------------------------------------------------|
B|---------------------------------------------------------------------------|
G|---------------------------------------------------------------------------|
D|--3--2--0--3----2----------------------------------------------------------|
A|--0--3--2--3----3----------------------------------------------------------|
E|----------(5)---3----------------------------------------------------------|


===============================================================================
Tap to rate this tab
# A B C D E F G H I J K L M N O P Q R S T U V W X Y Z