Song name
# A B C D E F G H I J K L M N O P Q R S T U V W X Y Z

Microphones - I Want Wind To Blow tab

ok i think phil is slightly out of tune because i tuned my guitar before learning this 
it sounds slightly off when i play it with the recording.

standard tuning

Guitar 1

|--------------------------------------|
|--------------------------------------|
|-0-0-0----0-0-0-----0-----0--0--------|
|-5-4-0----0-2-0-----0-----0--0--------|
|-x-x-x----x-x-2-----2-----0--2--------|
|-3-3-3----3-3-3-----3-----3--3--------|

Guitar 2

just pluck a G (3rd fret 6th string)

___________________________________________________________________________

The outtro/bridge thing

Guitar 1

|-----------------------------|
|-------5---------------------|
|-2s4-7---0-2-2-4-2-----------|
|-----------------------------|
|-----------------------------|
|-----------------------------|

Guitar 2

its in the key of D so just strum some of these chords (i prefer power chords on this one)

note     D, E, F#, G, A, B, C, D

fret       5, 0, 2,   3, 0, 2, 3, 5

string   5, 6, 6,   6, 5, 5, 5, 5


thats all i know! i'm pretty sure its substantial enough i just started listening to the 
(aka mount eerie) so i don't know the song 100% but i do like it a lot. i tried to make 
friendly to both beginners and pros with notes & frets hope its not confusing.

have fun!
Tap to rate this tab
# A B C D E F G H I J K L M N O P Q R S T U V W X Y Z